Oops, an error
Loading. Please wait.

Angelina Tab

version 2
version 2

Whole song

Interactive

Video

207,325 views 270 this week
9 commentsread comments
1 2 3 4 5
excellent!
x 47
add to favorites
launch autoscroll
font size
0
reset
how to read this tab
guitar tuner
Autoscroll
slow
fast
+/-
esc
set tempo
stop
Help us to improve Ultimate-Guitar.com Take our survey!
×
Contributor
Difficulty
Tuning
Capo
intermediate
D A D G B E
2nd fret
Angelina

Artist: Tommy Emmanuel

Submitted by: Harold Schaefer
Any comments, changes....send to schaefeh_19440@yahoo.com

Tab Notes:
Capo 2
Tuning: Drop D


Legend:
h = hammer on
P = pull off
/ = slide
** Measure marks not necessarily correct. Listen to the song to get the phrasing

Song Flow:  Intro  Verse 1   Bridge   Verse 2   Bridge   Verse 3   Harmonic Ending


[Intro]
     D     A     D/F#  G    D/A     A       D/F#   G     D/A 
e ---0------------------------0-|--------------------0-----0-------|
B --3-------2-----0----------3--|------2-----0-------0----3--------|
G -2-------2-----2-----2----2---|-----2-----2-----2--2---2---------|    (2x)      
D -------0-----0-----0----------|---0------0-----0-----------------|
A -----------------------0------|-----------------------0----------|
D -----0-----4----5-------------|-0-------4-----5------------------|


[Verse 1 and 2]
     D   D/F#  G   A7/Bb
e -0h2----5---------0-----|
B ---3----2----3----2-----|
G ---2---------4----0-----|
D ---0---------0----2-----|
A -------------5----1-----|
D -0------4----5----------|

   Bm    C2   G9   E7  A7
e -2-3-2------------------|
B -3-----3-----3---3---3--|
G -4-----5-5---2---1---0--|
D -4-----5-----0-------2--|
A -2-----3---------2---0--|
D -------3-----3---2------|

     D  D/F# Bm7  Bb                           E7    F/G  A
e -0h2---5--------0---0-|--2--3--2--/5--2h3p2--0-------------|
B ---3---2----3---3-3---|----------------------0--0--1/3--2--|
G ---2--------2---0-----|--2--4--2--/6--2------1-1---2/4--2--|
D ---0--------4---3-----|----------------------------3/5--2--|
A ------------2---1-----|---------------------------------0--|
D -0-----4--------------|----------------------2-------------|

     D   D/F#  G   A7/Bb  
e -0h2----5---------0----|
B ---3----2----3----2----|
G ---2---------4----0----|
D ---0---------0----2----|
A -------------5----1----|
D -0------4----5---------|

   Bm    C2   G9   E7  A7
e -2-3-2------------------|
B -3-----3-----3---3---3--|
G -4-----5-5---2---1---0--|
D -4-----5-----0-------2--|
A -2-----3---------2---0--|
D -------3-----3---2------|

    D   Em   D/F#  A9 (arpegio)               C7     G  D                D
e --2----3----5----7--------------5h77-5-5--------------2----------------2--|
B --3----3----5----5------------------------7-5h6p5--3--3----------------3--|
G --2----2----2----7---------------------6-----------4--2-----------0-2--2--|
D --0--------------5--------------------------5------5--0--4p2p0h2h4-----0--|
A -------2---------5--------------------------3-----------------------------|
D -------2----4----5--------------5------5----------------------------------|


[Bridge]
  
      Bm                Bm/Bb             D/A           E7
e --------0---0----0-----------0---0---0-------0---5/-----0--|
B ------7---7----------------7---7-----------7---7-------3---|
G --------------7--------------------7------------------1----|
D ---9--------------------8----------------7-----------0-----|
A ---------------------------------------0-------------------|
D -9-------------------8------------------------------2------|


                D/F# Bm7                        Gm6
e ------------0----5--2-----------0--2-h32--2--0--|
B --------023---3-----3p2------023-------------3--|
G ------02--------2---2------02----------------3--|
D --------------------4p2----------------------0--|
A --------------------2------------------------5--|
D -2-4-5----0---4----------5--------2----------5--|

      Bm                Bm/Bb             D/A           E7
e --------0---0----0-----------0---0---0-------0---5/-----0--|
B ------7---7----------------7---7-----------7---7-------3---|
G --------------7--------------------7------------------1----|
D ---9--------------------8----------------7-----------0-----|
A ---------------------------------------0-------------------|
D -9-------------------8------------------------------2------|

                D/F#
e ------------0----5--|
B --------023---3-----|
G ------02--------2---|
D --------------------|
A --------------------|
D -2-4-5----0---4-----|

    Bm7                             
e -4/5-5-4-2-4/5-10-10-9-7h97-9--5h75--5-----3-2-0---------------0-2-2h32-0---0-|
B ---3-----------7---------------6-----------------3-2-0---0-2-3------------3---|
G ---2-----------7-------7h97-9--7-----6-----------------2----------------------|
D ---4-----------7---------------0-------(H)7-----------------------------------|
A ---2-----------7-----------------------(H)7-----------------------------------|
D ---------------7-----------------------(h)7-----------------------------------|


[Verse 3]
     D   D/F#  G   A7/Bb
e -0h2----5---------0-----|
B ---3----2----3----2-----|
G ---2---------4----0-----|
D ---0---------0----2-----|
A -------------5----1-----|
D -0------4----5----------|


   Bm     C2   G9   E7  A7
e -2-3-2-------------------|
B -3------3-----3---3---3--|
G -4------5-5---2---1---0--|
D -4------5-----0-------2--|
A -2------3---------2---0--|
D --------3-----3---2------|

 
     D  D/F#  Bm  Bb                           E7    F/G  A
e -0h2---5--------0---0-|--2--3--2--/5--2h3p2--0-------------|
B ---3---2----3---3-3---|----------------------0--0--1/3--2--|
G ---2--------2---0-----|--2--4--2--/6--2------1-1---2/4--2--|
D ---0--------4---3-----|--0--0--0---0--0------------3/5--2--|
A ------------2---1-----|---------------------------------0--|
D -0-----4--------------|----------------------2-------------|


     D   D/F#  G   A7/Bb    D   Em   D/F#  A9                         D  
e -0h2----5---------0----|--2----3----5----7----5h77-5-5--------------2--|
B ---3----2----3----2----|--3----3----5----5--------------7-5h6p5--3--3--|
G ---2---------4----0----|--2----2----2----7-----------6-----------4--2--|
D ---0---------0----2----|--0--------------5----------------5---------0--|
A -------------5----1----|-----------------5----------------3------------|
D -0------4----5---------|-------2----4----5----5------------------3-----|


   A9               C7 (arpegio)     D  
e -5h77-5-5---------3----------------2---|
B -5---------7-5h65-5-------------3--3---|
G -7------6---------3----------------2---|
D -5-----------5----5-------------5--0---|
A -5----------------3--------------------|
D -5-------------------------------------|


[Harmonic ending]

e ----------------12--------12----|
B -------------------7----7-------|
G --------------7------5-------7--|
D -------------7------------------|
A -12---12---7--------------------|
D ----12---5----------------------|


e ----------------12-----------|
B -------------------7---------|
G --------------7--------7-----|
D -------------7-----------7---|
A -12---12---7-----------------|
D ----12---5-------------------|


e ----------------12--------12----|
B -------------------7----7-------|
G --------------7------5-------7--|
D -------------7------------------|
A -12---12---7--------------------|
D ----12---5----------------------|


e --------------------------|
B ---------------(7)--------|
G ------------12------------|
D ---------12--------7------|
A -12---12---------------7--|
D ----12---------------7----|


No harmonics
                    D 
e -2h32p0---------------0h2--|
B -------2------------3-3----|
G ---------0h20------2--2----|
D --------------4-2-0---0----|
A ----------------------0----|
D ----------------------0----|
comments
print report bad tab
9 comments total. Showing first comments.
0 reply
motimon3 671 wrote on March 28 2009, 11:55 am

good job man! beautiful song

+5 reply
slafoo 30 wrote on May 12 2009, 12:33 am

Awesome tab man.. just with the first line of the bridge you forgot to make relative to the capo

e --------0---0----0-----------0-----0---------0----5/-----|
B ------7---7----------------7---7-----------7---7------3--|
G --------------7------------------7-------7------------1--|
D ---9---------------------8-------------7-----------------|
A -------------------------------------0-------------------|
D -9--------------------8-------------------------------2--|

0 reply
guitar-star 10 wrote on May 14 2009, 04:18 am

this is a brilliant tab i just have one problem with it some
where near the end it jumps to some where but i dont know when and where.

also not to sure about the guy one up ^^^ it might be right
not to sure at the moment but

over all this is a 5 star tab

I want to post or [tab]
guest
You may want to rate the tab now too:
select rating
Please do not post tabs as comments. Select "correction" instead!