Oops, an error
Loading. Please wait.

Blue Moon Tab

version 1
version 1

Whole song

Interactive

72,482 views 141 this week
1 commentread comment
1 2 3 4 5
excellent!
x 5
add to favorites
launch autoscroll
font size
0
reset
how to read this tab
guitar tuner
Autoscroll
slow
fast
+/-
esc
set tempo
stop
Help us to improve Ultimate-Guitar.com Take our survey!
×
Author
Title     : Blue Moon
Artist    : Tommy Emmanuel
Album     : Dare To Be Different
Tabbed by : Coulter Shaw (windowinaglassprison@hotmail.com)
-------------------------------------------------

                                    BLUE MOON
                          As recorded by Tommy Emmanuel
                   (From the 2002 Album DARE TO BE DIFFERENT)

Words by Lorenz Hart

Music by Richard Rodgers
Arranged by Tommy Emmanuel

Tuning: Standard

   Swing Feel Q=136(8=s8)
  4/4
   Gtr I
          PM
e|-^0-----------|---------------|--------------|
B|-^1-----------|---1----1-1----|------1-------|
G|-^0-----------|---2----2-2----|------2-------|
D|-^2-----------|---------------|--------------|
A|-^3--2--0-----|------------2--|-3--2---0-----|
E|-----------3--|-1---2--3------|-----------3--|


e|------------------|-0-----------|-------------------|
B|---1-1-1-1-1-1----|-1-----1-----|---1----1-1--------|
G|---2-2-2-2-2-2----|-0-----2-----|---2----2-2--------|
D|------------------|-2-----------|-------------------|
A|------------------|-3--2--0-----|------------0-2----|
E|-1---2-----3---3--|----------3--|-1---2--3----------|


e|--------------|-----------2s3-3-|-(3)-----------|---1-3-5-3-3---1-|
B|---1----1-----|---1----1--------|--------1------|-----------------|
G|---2----2-----|---2----2--------|--------2------|-----------------|
D|--------------|-----------------|---------------|-----------------|
A|-3---2--0-----|-----------------|--3---2---0----|---------5---4---|
E|------------3-|-1---2--3--------|-------------3-|-1---0-----------|


e|-3----3--(3)-----|-----0-1-0-0-----|-0----0-(0)-----|---------0---------|
B|------1--(1)-----|---3-----------3-|------1-(1)-----|---1h=3----1-1-1---|
G|------0--(0)-----|-----------------|------2-(2)-----|---2-(2)-----2-2---|
D|-----------------|-----------------|----------------|---------------3---|
A|-3--2-----0------|-----------------|-0--0-----------|-------------------|
E|--------------3--|-1---2---3---4---|---------3---3--|-1---------1-------|


e|----------------|-----------2s3-3-|-(3)------------|---1-3-5-3-3---1--|
B|-1-----(1)-1----|---1---1---------|--------1-------|------------------|
G|-0-----(0)-2----|---2---2---------|--------2-------|------------------|
D|----------------|-----------------|----------------|------------------|
A|-3--2---0-------|-----------------|--3---2---0-----|---------5---4----|
E|-------------3--|-1---2-3---------|-------------3--|-1---0------------|


e|-3----3-(3)-----|-----0-1-0-0-----|-0----0-(0)-----|----------------------|
B|------1-(1)-----|---3-----------3-|------1-(1)-----|---1h=3--1---3b3.5r3--|
G|------0-(0)-----|-----------------|------2-(2)-----|---2-(2)--------------|
D|----------------|-----------------|----------------|----------------------|
A|-3--2----0------|-----------------|-0--0-----------|----------------------|
E|-------------3--|-1---2---3---4---|---------3---3--|-1---------1----------|


e|-------------|-----------------|----------------|-------------------|
B|-1-------1---|---1---1---1-1-1-|-3-3-3-3-5----5-|-1-1----(1)-1---1--|
G|---------2---|---2---2---2-2-2-|-1-1-2-2-4----4-|-0-0----(0)-2---2--|
D|-------------|-----------------|----------------|-------------------|
A|-3--2--0-----|-0---2---3---0---|----------------|-3---2---0---------|
E|-----------3-|-----------------|-1---2---3--3---|--------------3----|


e|---------0------|---------------|-----------------|---------------------|
B|-3-3-3-3-3----3-|-1-------1-1-1-|-1-1-1-1-/3----3-|---------------------|
G|-1-1-2-2--------|-0-------2-2-2-|-1-1-1-1--1----1-|-1S3-3----(3)--3-3-3-|
D|----------------|---------------|-----------------|---------------------|
A|----------------|-3--2--0-------|----------1--1---|---6---5---3---------|
E|-1---2---3--3---|-----------3---|-1---1-----------|-----------------6---|


e|------------------1s|=3---0-------------------|
B|-0---0-3-------3----|---6---3---0-------------|
G|-----0-2-----2------|---------5---3---0-------|
D|---0-------0--------|---------------4---3---0-|
A|--------------------|---------------------4---|
E|-3-------2----------|-------------------------|


e|---3----3-----|---1-3-5-3-3---1-|
B|--------1-----|-----------------|
G|--------0-----|-----------------|
D|--------------|-----------------|
A|-3---2--0-----|---------5---4---|
E|-----------3--|-1---0-----------|


e|-3----3-------|-----0-1-0-0-----|-0----0-(0)-----|---------------------|
B|------1-------|---3-----------3-|------1-(1)-----|---1h=3--1--3b3.5r=3-|
G|------0-------|-----------------|------2-(2)-----|---2-(2)----2b2.5r=2-|
D|--------------|-----------------|----------------|---------------------|
A|-3--2---0-----|-----------------|-0--0-----------|---------------------|
E|-----------3--|-1---2---3---4---|---------3---3--|-1----------1--------|


e|----6----(6)-----|----4----(4)-4-4-0-|-3-3-(3)--3----|-1-3-5-3-(3)-1h2-3--|
B|-----------------|-------------3-3-0-|-1-1-(1)--1----|--------------------|
G|-/5--------------|-/4----------4-4-0-|-0-0-(0)--2----|--------------------|
D|-----------------|---------------3---|-2-2-(2)--2----|----------0----0----|
A|-----------------|-------------------|-3----2---0----|--------------------|
E|-/4---4---4---4--|-/3---3---3----3---|-------------3-|-1---0--------------|


e|-(3)--------------|---0-1-0-(0)h1p0----0-|
B|-----1-(1)--1-----|-3---------------3----|
G|-----0-(0)--2-----|----------------------|
D|------------------|----------------------|
A|--3-----2---0-----|----------------------|
E|---------------3--|-1---2----3------4----|


                      4/4
e|-(0)-----0-(0)-----|--------------------|
B|---------1-(1)-----|---1h=3--1-3b3.5r3--|
G|-------2-----------|---2-(2)---2b2.5r2--|
D|-----2-------------|--------------------|
A|--0----0-----------|--------------------|
E|------------3---3--|-1---------1--------|


e|-^0--/8--------------|-^6-!0-^5--^4--------|
B|-^1--/8---8-(8)------|-^6-!0-^5--^4--------|
G|-^0--/8--10p=8-------|-^6-!0-^5--^4--------|
D|-^2-------------10-8-|-^5-!0-^4--^3--------|
A|--3------------------|-^6----^5--^4----0-2-|
E|---------------------|---------------3-----|


e|-3----3------|-1--3--5--3--(3)--1--2-3-|
B|-1----1------|-------------------------|
G|-0----0------|-------------------------|
D|-------------|--------------0------0---|
A|-3--2---0----|-------------------------|
E|-----------3-|-1-----0-----------------|


e|-(3)--------------|---0-1-0-(0)-----0-|
B|-----1-(1)--1-----|-3-------------3---|
G|-----0-(0)--2-----|-------------------|
D|------------------|-------------------|
A|--3-----2---0-----|-------------------|
E|---------------3--|-1---2----3----4---|


e|-(0)-----0-(0)----|-1/------8-10-12-8-------|
B|---------1-(1)----|-1/-8-10-----------8-----|
G|-------2----------|-2/------------------10--|
D|-----2------------|-3/----------------------|
A|--0----0----------|-3/----------------------|
E|------------3---3-|-1/----------------------|


e|---------8--------------8--8-|-8--------------------|
B|---------------------------8-|---8------------0-1-2-|
G|-11b11.5-------10b10.5-----8-|-----9----------------|
D|------------10---------------|-------10-3-0-2-------|
A|-----------------------------|----------------------|
E|-----------------------------|----------------------|


e|----------------|-------------------|
B|-3-3-3-3-5----5-|-1-1----(1)-1---1--|
G|-1-1-2-2-4----4-|-0-0----(0)-2---2--|
D|----------------|-------------------|
A|----------------|-3---2---0---------|
E|-1---2---3--3---|--------------3----|


e|----------------|-----------------|-----------------|---------------------|
B|-3-3-3-3-5----5-|-1-----(1)-1---1-|-1-1-1-1-/3----3-|---------------------|
G|-1-1-2-2-4----4-|-0-----(0)-2---2-|-1-1-1-1--1----1-|-1S3-3----(3)-3-3-3--|
D|----------------|-----------------|-----------------|---------------------|
A|----------------|-3--2---0--------|----------1--1---|---6---5---3---------|
E|-1---2---3--3---|-------------3---|-1---1-----------|----------------6----|


                        Straight Time Q=136
e|------------------3-|-(3)----------3-3-|-----------3---3/-|-x-8-6-8-6-8-|
B|-0---0-3-(3)-3-3--0-|-(0)----------0-0-|-----------3---0/-|-x-8-6-8-6-8-|
G|-----0-2-(2)-2-2----|--------------0-0-|-0---------0---0/-|-x-6-6-6-6-6-|
D|---0---------0-0----|--3--3-3-3-3--3-3-|-2-2-2-2-2-2---2/-|-x-5-5-5-5-5-|
A|--------------------|--3--3-3-3-3--3-3-|-2-2-2-2-2-2---2/-|-x-6-6-6-6-6-|
E|-3--------2---------|--1--1-1-1-1--1-1-|-0-0-0-0-0-0---0/-|-------------|


               Swing Feel Q=136(8=s8)
e|-x-6-4-6-4-6-|-3----3-(3)-----|---1-3-5-3-3---1-|-3----3-(3)-----|
B|-x-6-4-6-4-6-|------1-(1)-----|-----------------|------1-(1)-----|
G|-x-4-4-4-4-4-|------2-(2)-----|-----------------|------0-(0)-----|
D|-x-3-3-3-3-3-|----------------|-----------------|----------------|
A|-x-4-4-4-4-4-|-3--2----0------|---------5---4---|-3--2----0------|
E|-------------|-------------3--|-1---0-----------|-------------3--|


e|-----0-1-0-0----|-0----0-(0)-----|---------0---------|-1------------------|
B|---3-----------3|------1-(1)-----|---1h=3----1-------|-1-1-3b4r=1-3-1-(1)-|
G|----------------|------2-(2)-----|---2-(2)-----2-(2)-|-2------------------|
D|----------------|----------------|-------------------|-3------------------|
A|----------------|-0--0-----------|-------------------|-3------------------|
E|-1---2---3---4--|---------3---3--|-1---------1-------|-1------------------|


e|-0-8---------------|----------0-|-------------|---8------|
B|-1-----------------|--1--2S=3---|-1-----1-0-1-|---6------|
G|-2----7s8s7--5---5-|--3-(3)-----|-2---2-------|----------|
D|-2-------------7---|--4-(4)-----|-3-3---------|----------|
A|-0-----------------|------------|-------------|---5------|
E|-x-----------------|--4-(4)-----|-3-----------|----------|


e|-8----8\----|-^3------*|
B|-7----8\----|-^3------*|
G|------------|-^2------*|
D|------------|-^2------*|
A|-6----7\----|-^3------*|
E|------------|-^3------*|


Tablature Legend
----------------
 h   - hammer-on
 p   - pull-off
 b   - bend
 pb  - pre-bend
 r   - bend release (if no number after the r, then release immediately)
 /\  - slide into or out of (from/to "nowhere")
 s   - legato slide
 S   - shift slide
  - natural harmonic
[n]  - artificial harmonic
n(n) - tapped harmonic
 ~   - vibrato
 tr  - trill
 T   - tap
 TP  - trem. picking
 PM  - palm muting
\n/  - tremolo bar dip; n = amount to dip
 \n  - tremolo bar down
 n/  - tremolo bar up
/n\  - tremolo bar inverted dip
 =   - hold bend; also acts as connecting device for hammers/pulls
 <>  - volume swell (louder/softer)
 x   - on rhythm slash represents muted slash
 o   - on rhythm slash represents single note slash

Misc Legend
-----------
 |  - bar
||  - double bar
||o - repeat start
o|| - repeat end
*|  - double bar (ending)
 :  - bar (freetime)
 $  - Segno
 &  - Coda
Tempo markers -  = BPM(8/16=s8/s16), where s8 = swing 8ths, s16 = swing 16ths
Suggest correction
comments
print report bad tab
1 comment total.
0 reply
METAL4LYF 10 wrote on August 9 2006, 05:47 am

nice one man but u forgot the percussive things

guest
You may want to rate the tab now too:
select rating
Wanna post a correction for this tab? Suggest correction