Oops, an error
Loading. Please wait.

Lady Madonna Tab

27,749 views 39 this week
1 commentread comment
1 2 3 4 5
x 10
add to favorites
launch autoscroll
font size
0
reset
how to read this tab
guitar tuner
Autoscroll
slow
fast
+/-
esc
set tempo
stop
Help us to improve Ultimate-Guitar.com Take our survey!
×
Artist: Tommy Emmanuel
Song: Lady Madonna
Tuning:Standard

[Intro]
E|---------------------|--------------------|----------------------|-----------------|
B|---------------------|--------------------|------------------1---|---3---2---------|
G|-----------------2---|(2)--------------2--|(2)---------------2---|---4---2---------|
D|---------0-0-3s4-----|---------0-0-3s4----|---------0-0-3s4--3---|---5---2---------| x2
A|-0-0-3-4-------------|-0-0-3-4------------|-0-0-3-4----------3---|---5---0---------|
E|---------------------|------------------- |------------------1---|---3-------------|

[Part1]
E|---------------------|--------------------|-----0---2-0----------|-----------------|
B|-1 2---1-0-----------|-1-2-1-0------------|-1-2---2-----1p0--1---|---3---2---------|
G|-----------2-----2---|---------2-------2--|------------------2---|---4---2---------|
D|---------0-0-3s4-0---|---------0-0-3s4-0--|---------0-0-0----3---|---5---2---------| x2
A|-0-0-3-4-------------|-0-0-3-4------------|-0-0-4-4----------3---|---5---0---------|
E|---------------------|------------------- |------------------1---|---3-------------|

[Part2]
E|---------------------|--------------------|-----------------0----|-----------------|
B|-3-3-3-3-3-3-3-1-----|-3------------------|-1-1-1-1-1-1-1h3--1---|---------1---2---|
G|-2-2-2-2-2-2-2-2-----|-0--0---------------|-0-0-0-0-0-0----------|---------0---2---|
D|-0-0-----------------|--------------------|----------------------|-----------------| 
A|-----3-3-2-2-0-0-----|-----0-0-1-1-2-2----|-3-3-2-2-0-0-2---2----|-3-3-2-2-3-3-4-4-|
E|---------------------|-3-3--------------- |----------------------|-----------------|

E|---------------------|--------------------|-0-------2---2--------|---------0-------|
B|-3-3-3-3-3-3-3-1-----|-3------------------|-1-------3------------|-3-------0-------|
G|-2-2-2-2-2-2-2-2-----|-0--0---------------|-0-------2------------|-2-------1-------|
D|-0-0-----------------|--------------------|---------4------------|-4-------2-------| 
A|-----3-3-2-2-0-0-----|-----0-0-1-1-2-2----|-3-------2------------|---------2-------|
E|---------------------|-3-3--------------- |----------------------|---------0-------|



************************************

| (n)  Ghost note
| p    Pull-off
| h    Hammer-on  

************************************
Suggest correction
comments
print report bad tab
1 comment total.
0 reply
Venom0120 39 Jul 27, 2016 05:20 PM

Good tab. Part 2 is a little bit off, but I know it's hard to tab Tommy, so props to you for attempting. Thanks!

guest
You may want to rate the tab now too:
select rating
Wanna post a correction for this tab? Suggest correction