Oops, an error
Loading. Please wait.

Mombasa Tab

version 2
version 2

Whole song

Interactive

56,044 views 66 this week
3 commentsread comments
1 2 3 4 5
excellent!
x 13
add to favorites
launch autoscroll
font size
0
reset
how to read this tab
guitar tuner
Tab Pro tools
  • play this tab
  • loop segment
  • change instrument
  • show fretboard
  • metronome
×
Best way to learn
"Mombasa"
Autoscroll
slow
fast
+/-
esc
set tempo
stop
Contributor
---------------------------------------------------------------------------
                             Mombasa - Tommy Emmanuel
---------------------------------------------------------------------------
Tabbed by:Coulter Shaw (Slash_7)
Email: windowinaglassprison@hotmail.com

Tuning: standard

Played with plectrum and fingers.
e|-----------------0------|----0-----------0-----0-|----------------0------|
B|-----------------0--x---|-------0-----0-----0----|----------------0------|
G|------1---------(4)-----|-------6-----6-----6----|-------1---------------|
D|----2--------2----------|-7-----------7----------|----2---------2--------|
A|--------------------x-0-|------------------------|-------------------0-0-|
E|-0-------4--------------|----------7-------------|-0---------4-----------|

e|----0--0------------0--0-|---------------0-------|---0-----------------0-|
B|-0--0--0------------0--0-|---------------0-------|------0-----------7----|
G|-6--6--6----------6-6--6-|------1----------------|------6--------6--6----|
D|-7-----7-------7---------|---2--------2----------|-7----------7-----7----|
A|-------------------------|---------------------0-|-----------------------|
E|-----------7-------------|0--------4--------4----|---------7-------------|
                             repeat thingo
e|-----------------0------0--|----------4--2--0------------|
B|-----------------0------0--|:-P.M....-------------0----2-|
G|-------1----------------6\-|-------4-----2--1------------|
D|----2---------2---------7\-|----2------------------------|
A|------------------------0--|:--------------------------0-|
E|-0--------4----------0--0--|-0-------------------4-------|

e|-------------0-----|---------0------2-2h4-2-|--------------0--0----|
B|----2--------------|------------------------|----2-x--4----------4-|
G|-------4---------3-|------3-----------------|----2----4----------4-|
D|-2-------------2---|---2--------------------|----2----4------------|
A|-------------------|------------------------|-2----x-----2---------|
E|----------4--------|-2-----------2----------|----------------------|

e|-------------4--2--0--------|--------------0------|--------0------------|
B|-P.M....--------------0---2-|-----2---------------|-------------4-4p2p0-|
G|----------4-----2--1--------|--------4----------3-|------3--------------|
D|-------2--------------------|--2-------------2----|---2-----------------|
A|----2---------------------0-|---------------------|---------------------|
E|-0--------------------4-----|-----------4---------|-2---------2---------|

e|-------------------0------|-------5---------5--------|---5---------5-----|
B|-2--------0---------------|----5----/9-------------7-|---7----5------x-4-|
G|-------2--------2-----4/6-|---------/9-------------8-|--------6--------4-|
D|----2--------1------------|--------------------------|-------------------|
A|-0--------2-----------0---|-0--0-----0---0--0---0--0-|-0---0--0--0-0-x---|
E|--------------------------|--------------------------|-------------------|

e|-------4--------4------|----4-------------4-------|----0----------0------|
B|----------7-----7----5-|----5-----4---------x-8\7-|-------x---------x----|
G|----------6----------4-|----------4h5-----4-------|----------6---------4-|
D|-----------------------|--------------------------|----------5---------6-|
A|-----------------------|----------6---------x-----|-0-----x---------x----|
E|-4--4--4--4--4--4--4---|-4--4--4--------4---------|-------------6--------|

e|-------4--7-------------|---------2p0--------|------------------------|
B|----5-----------5-------|---0h2h4-----4p2p0--|-2--------0----0--------|
G|----------------4--4--3-|--------------------|-2-----2--2-------------|
D|-------------6-----6--4-|--------------------|----2--------1--------2-|
A|----------4-------------|--------------------|-0--------2-------2h4---|
E|-7----------------------|-2------------------|------------------------|

e|--------4--2--0----------|---------------0-----|---------0------------|
B|------------------0----2-|-----2---------------|----------------4p2p0-|
G|--------4--2--1----------|--------4-----------3|------3---------------|
D|-----2-------------------|--2---------------2--|----2-----------------|
A|-----------------------0-|---------------------|----------------------|
E|-0----------------4------|-----------4---------|-2-----------2--------|

e|---------------------------|------------------------|----5\4------0----0-|
B|-2--------4------------4/5-|-------5--5/7--------7--|----0----7----------|
G|---------------------------|------------------------|----6-----------6---|
D|----2--2--4------4--4--4/6-|----6-----6/7-----7-----|-7--------------7---|
A|-0------------2------------|-4-------------5-------0|--------------------|
E|---------------------------|------------------------|-----------7--------|
                                      Back to repeat
e|-----------------0----|----5p4----------0----0-|-------------------------|
B|-----------------0----|---------8\7-------0---:|-2---------0--------0----|
G|-------1--------------|-------------------6----|-2------2--2-----2-------|
D|----2--------2--------|-7-----------------7---:|-----2--------1----------|
A|--------------------0-|------------------------|-0---------2-----------0-|
E|-0--------4-----------|--------------7---------|-------------------------|

e|-------0---------2-----0-|---------2-----0--2----|-4----------------2----|
B|----2-----4------4-----2-|-----2---4-----4--4----|-5--5--4----------2----|
G|-2--------4--------------|-----2---4-----4--4----|----4--4-----2h3-------|
D|-------------------------|-----------------------|----6--4-----2---------|
A|----------0--0---0--0--0-|-0---0---0--0--0--0--0-|-4-----------4-------4-|
E|-------------------------|-----------------------|----------0--2---------|

e|-7-(4)-----------2-------|-------0--------2------5-|----7----9--9--9--9-|
B|-7-(5)--x-----------x----|----2-----4------------5-|----5----7--7-------|
G|-----------2h3-----------|-2---------------------6-|----6----8--8-------|
D|-6---------2-------------|-------------------------|--------------------|
A|--------x-----------x--0-|----------0--0-----0---0-|-0-----0------------|
E|-----------2-------------|-------------------------|--------------------|

e|----------7-----------7\5-|----------5\4----------4-|--------4-----0----|
B|-------4-----------4------|-------3------------3----|----4------3-----2-|
G|-------4-----------4------|-------4------------4----|----3--------------|
D|----4-----------4---------|----3------------3-------|----2--------------|
A|--------------------------|-4------------4----------|-------------------|
E|-4-----------4------------|-------------------------|-2-----------------|

e|-----------------|--------------4--2--0--------|--------------0-----|
B|-----------------|--p.m.....-------------0---2-|----2---------------|
G|-----------------|----------4------2--1--------|-------4----------3-|
D|---------2p1-----|-------2---------------------|-2--------------2---|
A|-----2---------2-|----2----------------------0-|--------------------|
E|-2---------------|-0---------------------4-----|----------4---------|

e|---------0-------------|--------------------------|----------------------|
B|---------------4-4p2p0-|-2--------4-----------4/5-|-------5--7-------7---|
G|-------3---------------|--------------------------|----------------------|
D|----2------------------|----2--2--4------4--4-4/6-|----6-----7-----7-----|
A|-----------------------|-0------------2-----------|-4-----------5------0-|
E|-2----------2----------|--------------------------|----------------------|

e|----5\4----------0-----0-|-----------------0------|---5\4--------0-----0-|
B|----0----8\7--------6----|-----------------0--x---|--------7--------0----|
G|----6---------------7----|------1-----------------|-----------------6----|
D|-7-----------------------|---2---------2----------|-7---------------7----|
A|-------------------------|--------------------x-0-|----------------------|
E|--------------7----------|-0--------4-------------|-----------7----------|

e|-----------------0----|---5\4--------0------0-|-------0----------2----|
B|-----------------0----|--------7-----0--------|----2-----2/4-----4----|
G|-------1--------------|-----------------------|----2-----2/4-----4----|
D|----2--------2--------|-7---------------------|----2-----2/4----------|
A|--------------------0-|---------------------0-|-0-----0-------0--0--0-|
E|-0--------4-----------|-----------7------7----|-----------------------|

e|-0---------2-------0---2----|-4--------------------|-7-(4)--------2-----|
B|----2------4-------4---4----|-5--5--4---------x----|-7-(5)-x--------x---|
G|----2------4-------4---4----|----4--4-----2h3------|---------2h3--------|
D|----2-----------------------|----6--4-----2--------|-6-------2----------|
A|-0------0--0---0---0---0--0-|-4---------------x--4-|-------x--------x-0-|
E|----------------------------|----------0--2--------|---------2----------|

e|-------0---------2-----/5-|---7----/9--9--9--9-|----------7-----------5-|
B|----2------4-----------/5-|---5----/7--7-------|-------4-----------4----|
G|-2---------------------/6-|---6----/8--8-------|-------4-----------4----|
D|--------------------------|--------------------|----4-----------4-------|
A|-----------0--0-----0-----|-0----0-------------|------------------------|
E|--------------------------|--------------------|-4-----------4----------|

e|----------5\4----------4-|--------4-----0----|-------------------|
B|-------3------------3----|----4------3-----2-|-------------------|
G|-------4------------4----|----3--------------|-------2-----------|
D|----4------------3-------|----2--------------|-------2\1-------2-|
A|-4------------4----------|-------------------|----2-------2h4----|
E|-------------------------|-2-----------------|-2-----------------|

e|----4--2--0---------|---------------0------|--------0--------------|
B|-------------0----2-|----2-----------------|---------------4-4p2p0-|
G|----4--2--1---------|--------4-----------3-|-----3-----------------|
D|--------------------|-2----------------2---|---2-------------------|
A|------------------0-|----------------------|-----------------------|
E|-0-----------4------|------------4---------|-2-----------2---------|

e|--------------------------|------------------------|----5\4-------0---0-|
B|-2--------4-----------4/5-|-------5--7--------7----|----0----7----------|
G|--------------------------|------------------------|----6-----------6---|
D|----2--2--4-----4--4--4/6-|----6-----7-----7-------|-7--------------7---|
A|-0-----------2------------|-4-----------5--------0-|--------------------|
E|--------------------------|------------------------|------------7-------|

e|---------------0-----|---5\4----------0-----0-|-----------------0------|
B|---------------0-----|--------8\7--------0----|-----------------0-x----|
G|------1--------------|-------------------6----|-------1----------------|
D|----2-------2--------|-7-----------------7----|----2---------2---------|
A|-------------------0-|------------------------|-------------------x--0-|
E|-0-------4-----------|-------------7----------|-0--------4-------------|

e|----5\4---------0----0-|---------------0------|---5\4---------0----|-----|
B|---------8\7------0----|---------------0------|--------8\7-------0-|-0---|
G|------------------6----|-------1--------------|------------------6-|-1---|
D|-7----------------7----|----2--------2--------|-7----------------7-|-4---|
A|-----------------------|--------------------0-|--------------------|-2---|
E|--------------7--------|-0--------4-------4---|-------------7------|-0---|
there you go enjoy and please rate my tab.

| /  slide up
| \  slide down
| h  hammer-on
| p  pull-off
| ~  vibrato
| +  harmonic
| x  Mute note
===============================================================================
comments
print report bad tab
3 comments total.
+1 reply
Hammy135 wrote on July 31 2006, 08:37 pm

nice tab, hes so under rated here in the uk! Wouldnt of heard of him if it wasnt for youtube

0 reply
Akyo wrote on August 25 2006, 09:49 am

Woudln't have heard of it if it wasn't for the ug forums!I'm going to his show in novermber,it's gonna be awesome.
And this tab is absolutely great,love it

0 reply
deathmore wrote on February 7 2008, 07:58 pm

its a perfect tab, but you might want to cite the fact that it was taken directly out of the "Only" song book.

I want to post or [tab]
guest
You may want to rate the tab now too:
select rating
Please do not post tabs as comments. Select "correction" instead!