Oops, an error
Loading. Please wait.

Stevies Blues Tab

version 3
version 3

Whole song

Interactive

2,158 views 6 this week
no commentswrite comment
1 2 3 4 5
please rate
add to favorites
launch autoscroll
font size
0
reset
how to read this tab
guitar tuner
Tab Pro tools
  • play this tab
  • loop segment
  • change instrument
  • show fretboard
  • metronome
×
Best way to learn
"Stevies Blues"
Autoscroll
slow
fast
+/-
esc
set tempo
stop
Contributor
Difficulty
intermediate
TOMMY EMMANUEL - STEVIE'S BLUES
Tabbed by: Ykanen


E|-----------5--3/4--0-------------------|
G|-----3--5-------------0----------------|
B|-2/4--------------------3p2--0---------|
D|--------------------------------2b-----|
A|---------------------------------------|
E|---------------------------------------|


E|---------------------------------------|
G|---0-----------2-2---------------------|
B|---1-------2---2-2---------------------|
D|-2-2-------2---2-2---------2-----------|      
A|-2---------0-------------2-2-----------|
E|-0----3b------------3b---0-0-----------|
     
   
E|-0-----------5--3/4--0-----------------|
G|-------3--5-------------0--------------|
B|---2/4--------------------3p2--0-------|
D|----------------------------------2b---|
A|---------------------------------------|
E|---------------------------------------|


E|---------------------------------------|
G|---0-----------2-2---------------------|
B|---1-------2---2-2---------------------|
D|-2-2-------2---2-2---------2-----------|      
A|-2---------0-------------2-2-----------|
E|-0----3b------------3b---0-0-----------|
     

E|-0-----------5--3/4--0-----------------|
G|-------3--5-------------0--------------|
B|---2/4--------------------3p2--0-------|
D|----------------------------------2b---|
A|---------------------------------------|
E|---------------------------------------|

    
E----------------------------------------|
B----------------------------------------|
G-2--5----7-7----5--2--------------------|
D-2--5----7-7----5--2--------------------|
A-0--3p0--5-5p0--3--0--------------------|
E----------------------------------------|


E|-----------5--3/4--0-------------------|
G|-----3--5-------------0----------------|
B|-2/4--------------------3p2--0---------|
D|--------------------------------2b-----|
A|---------------------------------------|
E|---------------------------------------|

        
E|---------------------------------------|
G|---0-----------2-2---------------------|
B|---1-------2---2-2---------------------|
D|-2-2-------2---2-2---------2-----------|      
A|-2---------0-------------2-2-----------|
E|-0----3b------------3b---0-0-----------|
    

E|---3b---3b---3b-0--------------------0-|
G|---2b---2b---2b---------------0---3b-0-|
B|------------------3p2-0-------2--------|
D|-x----x----x---------------------------|      
A|-x----x----x------------0-2-2---2------|
E|-x----x----x---------------------------|
  (x) Mute with thumb

E|-0------------5-0----------------------|
G|-0----------3-----3-0------------------|
B|-0--------3-----------3p2-0------------|
D|-2----0-2-------------------2----------|      
A|-4-------------------------------------|
E|---------------------------------------|


E|---------------------------------------|
G|---0-----------2-2---------------------|
B|---1-------2---2-2---------------------|
D|-2-2-------2---2-2---------2-----------|      
A|-2---------0-------------2-2-----------|
E|-0----3b------------3b---0-0-----------|
 
 /  slide
 p  pull off
(x) mute  
 b  bend   
comments
We did not receive enough feedback on this tab! Please rate:
print report bad tab
1 2 3 4 5
I want to post or [tab]
guest
You may want to rate the tab now too:
select rating
Please do not post tabs as comments. Select "correction" instead!