Oops, an error
Loading. Please wait.

Diy Tab

version 2
version 2

Whole song

972 views 1 this week
no commentswrite comment
1 2 3 4 5
please rate
add to favorites
launch autoscroll
font size
0
reset
how to read this tab
guitar tuner
Autoscroll
slow
fast
+/-
esc
set tempo
stop
Help us to improve Ultimate-Guitar.com Take our survey!
×
Tommy Guerrero
D.I.Y
skate. exclusive track (skate. soundtrack)


/= Slide to
h= hammer on
p= pulloff


 [1]                   [2]
[-7---9--9--9--9---7---/--14--14--14--14--14------------------------|
[-7---7--7--7--7---7---/--14--14--14--14--14------------------------|
[-7-h-7--7--7--7-p-7---/--14--14--14--14--14------------------------|
[-------------------------------------------------------------------| X2
[-------------------------------------------------------------------|
[-------------------------------------------------------------------|
Repeat [1] 3 times then play [2]


 [3]
[----9-9---------------9-9--------------9-9-------------9-9-------9-|
[--7-----10-10-7--7-7------10-10-7--7-------10-10-7---------10-10---|
[-------------------------------------7-------------7---------------|
[-------------------------------------------------------------------| X2
[-------------------------------------------------------------------|
[-------------------------------------------------------------------|

[-7-7--10-9-7---14-14-17-15-14---10-10-12-10-10--10-10-12--9--9-----|
[-7-7--7--7-7---14-14-14-14-14---10-10-10-10-10--10-10-10-10-10-----|
[-------------------------------------------------------------------|
[-------------------------------------------------------------------| X2
[-------------------------------------------------------------------|
[-------------------------------------------------------------------|

Repeat [3]


[-7---10-9p7-----7---------12----14---------------------------------|
[-7---------7-10-7------12-12----12---------------------------------|
[-7--------------7--7/12---12----12---------------------------------|
[-------------------------------------------------------------------|
[-------------------------------------------------------------------|
[-----------------------------------------7----5-7----3-------------|

Repeat [1], Rhythm guitar till end of song.
Repeat [3], Lead guitar till end of song.

-----

This is an awesome Tommy Guerrero song that I didn't find on this site so I thought I 
contribute to an inspiring artist's vision. Great song, great artist.
I tabbed it by ear so I hope its all right. I like feedback.
I labeled this song advanced only because of the skill it takes to make it sound right, 
above all to make it sound GOOD.
Keeping that in mind I figure a guitarist with a good head on his/her shoulders 
shouldn't have a problem with this tab.
If there are any questions, contact me at: Richardnixon24@gmail.com

Thanks for checking it out!
Suggest correction
Give kudos to tab author, rate the tab!
1 2 3 4 5
comments
print report bad tab
guest
You may want to rate the tab now too:
select rating
Please do not post tabs as comments. Select "correction" instead!