Oops, an error
Loading. Please wait.

One More Time intro tab

1,589 views 3 this week
1 commentread comment
1 2 3 4 5
2 more votes to show rating
add to favorites
×
Save as Personal and add changes to this tab that will be seen only by you. Learn more ›
×
You can save this tab as Personal to edit and correct it or add notes. All changes will be seen only by you. Learn more »
launch autoscroll
font size
0
reset
how to read this tab
guitar tuner
edit
Autoscroll
slow
fast
+/-
esc
set tempo
stop
Difficulty
I took a little time to figure this out quickly,
i was bored and tommy guerrero is a good guitarist/band.
Not the exact guitar tab, but close enough
listen to the song for the beat
hope you enjoy!


E ------------------------------------------------------|
B ------------------------------------------------------|
G ------------4----------------------4------------------|
D -5/7-----4h6----5p3-3---5/7-----4h6----5p3-3----------|
A ------------------------------------------------------|
E ------------------------------------------------------|

E ------------------------------------------------------|
B ------------------------------------------------------|
G ------------1------------------1----------------------|
D -2/4-----1h3--5/7----2/4----1h3---5p3-3---------------|
A ------------------------------------------------------|
E ------------------------------------------------------|

E ------------------------------------------------------|
B ------------------------------------------------------|
G ------------4----------------------4------------------|
D -5/7-----4h6----5p3-3---5/7-----4h6----5p3-3----------|
A ------------------------------------------------------|
E ------------------------------------------------------|

E ------------------------------------------------------|
B ------------------------------------------------------|
G ------------1------------------1----------------------|
D -2/4-----1h3--5/7----2/4----1h3---5p3-3---------------|
A ------------------------------------------------------|
E ------------------------------------------------------|

            
            
Suggest correction
Creating personal tab
Creating personal tab
You can edit any tab online and save it as your Personal.

You can edit, replace or remove any tab part or add personal notes – all changes will be seen only by you.

Personal tabs can be accessed anytime from any device, even offline.
Learn more »
Give kudos to tab author, rate the tab!
1 2 3 4 5
comments
print report bad tab
1 comment total.
0 reply
GravityGuitar 10 Jan 26, 2008 05:17 PM

Pretty good tab, wish it included the whole song... i also wish there were more tommy guerrero tabs

guest
Wanna post a correction for this tab? Suggest correction