Oops, an error
Loading. Please wait.

So Blue Its Black tab

196 views 3 this week
1 commentread comment
1 2 3 4 5
2 more votes to show rating
add to favorites
×
Save as Personal and add changes to this tab that will be seen only by you. Learn more ›
×
You can save this tab as Personal to edit and correct it or add notes. All changes will be seen only by you. Learn more »
launch autoscroll
font size
0
reset
how to read this tab
guitar tuner
edit
Autoscroll
slow
fast
+/-
esc
set tempo
stop
Author
Difficulty
[Verse]
     Am7                  Bm               Cm7           Gm7       G#m    
e|---------------------------------------------------------------------------|
B|--------------------5--8-7~-------------7-8~-------------------------------|
G|----------------5-7-----------------7-9------------------------------------|
D|-----------5/7-----------------7/9-----------------------------------------|
A|---------------------------------------------------------------------------|
E|--3/5----------------------------------------------------------------------|

[bar 1]
     Am7       
e|-----0------|  
B|-----1------|
G|-----0------|
D|-----2------|
A|-----0------|
E|-----x------|

[bar 2]
     Bm       
e|-----2------|  
B|-----3------|
G|-----4------|
D|-----4------|
A|-----2------|
E|-----x------|

[bar 3]
     Cm7     
e|-----3------|  
B|-----4------|
G|-----3------|
D|-----5------|
A|-----3------|
E|-----x------|

[bar 3]
     Gm7     
e|-----3------|  
B|-----3------|
G|-----3------|
D|-----3------|
A|-----5------|
E|-----3------|

[bar 4]
     G#m    
e|-----4------|  
B|-----4------|
G|-----4------|
D|-----2------|
A|-----6------|
E|-----4------|


************************************

| ~  Vibrato
| /  Slide up
| x  Dead note

************************************

            
            
Suggest correction
Creating personal tab
Creating personal tab
You can edit any tab online and save it as your Personal.

You can edit, replace or remove any tab part or add personal notes – all changes will be seen only by you.

Personal tabs can be accessed anytime from any device, even offline.
Learn more »
Give kudos to tab author, rate the tab!
1 2 3 4 5
comments
print report bad tab
1 comment total.
0 reply
quantumlogik 53 Dec 14, 2016 07:06 PM

I'm transcribing the version heard here: https://www.youtube.com/watch?v=NkE_2Qu3_Pc. I'm not certain the chords provided are correct, however I think I've got the main melody down. Please post any suggestions! There's also a part (~2:30 in the song) where he adds a few more chords I didn't both transcribing. If you can figure them out, post them! Just thought this was fun to play along to endlessly. Enjoy!

guest
You may want to rate the tab now too:
select rating
Wanna post a correction for this tab? Suggest correction