Oops, an error
Loading. Please wait.

Gothic Pink Bass Tab

1,686 views 1 this week
no commentswrite comment
1 2 3 4 5
please rate
add to favorites
launch autoscroll
font size
0
reset
guitar tuner
Tab Pro tools
  • play this tab
  • loop segment
  • change instrument
  • show fretboard
  • metronome
×
Best way to learn
"Gothic Pink"
Autoscroll
slow
fast
+/-
esc
set tempo
stop
Contributor
Tuning
D A D G B E
Tommy Heavenly6 (http://www.sonymusic.co.jp/Music/Info/Tommy/)
Gothic Pink
Drop D Tunning
Tabbed By Klaus (mavrick45@gmail.com)


00:49
G----------------------------------------------|
D----------------------------------------------|
A----------------2222--1111--------------------|
D---33333333--------------------33333333-------|

G--------------------------------------------------------------|
D--------------------------------------------------------------|
A---2222--111-3--44444444--111111-33--44444444--666666-77------|
D--------------------------------------------------------------|


G---------------------------------------------|
D---------------------------------------------|
A----------------2222--1111-------------------|
D---33333333--------------------33333333------|

G----------------------------------------------------------------------|
D----------------------------------------------------------------------|
A----2222--111-3--44444444--111111-33--44444444--66666666666666-77-----|
D----------------------------------------------------------------------|


01:53
G--------------------------------------------|
D--------------------------------------------|
A---------------2222--1111-------------------|
D---33333333--------------------33333333-----|

G------------------------------------------------------------|
D------------------------------------------------------------|
A---2222--111-3--44444444--111111-33--44444444--666666-77----|
D------------------------------------------------------------|

G---------------------------------------------|
D---------------------------------------------|
A----------------2222--1111-------------------|
D---33333333--------------------33333333------|

G------------------------------------------------------------|
D------------------------------------------------------------|
A---2222--111-3--44444444--111111-33--44444444--666666-77----|
D------------------------------------------------------------|


G----------------------------------------------------------------------------|
D----------------------------------------------------------------------------|
A---------------------------------2-2---------------------------------2------|
D---3-3-3-1--3-3-3-1--3-3-3-1--3--------3-3-3-1--3-3-3-1--3-3-3-1--3-----6---|

G-----------------------------------------------------------------------------|
D-----------------------------------------------------------------------------|
A---------------------------------2-2---------------------------------2-------|
D---3-3-3-1--3-3-3-1--3-3-3-1--3--------3-3-3-1--3-3-3-1--3-3-3-1--3-----6----|


03:02

G--------------------------------------------------|
D--------------------------------------------------|
A-----------------------2222--1111-----------------|
D---13\---33333333--------------------33333333-----|

G----------------------------------------------------------------------|
D----------------------------------------------------------------------|
A----2222--111-3--44444444--111111-33--44444444--66666666666666-77-----|
D----------------------------------------------------------------------|


G------------|
D------------|
A------------|
D---3-3------|
comments
We did not receive enough feedback on this tab! Please rate:
print report bad tab
1 2 3 4 5
I want to post or [tab]
guest
You may want to rate the tab now too:
select rating
Please do not post tabs as comments. Select "correction" instead!