Oops, an error
Loading. Please wait.

Pray Tab

version 1
version 1

Whole song

Interactive

15,447 views 42 this week
no commentswrite comment
1 2 3 4 5
excellent!
x 3
add to favorites
launch autoscroll
font size
0
reset
how to read this tab
guitar tuner
Tab Pro tools
  • play this tab
  • loop segment
  • change instrument
  • show fretboard
  • metronome
Autoscroll
slow
fast
+/-
esc
set tempo
stop
Contributor
Difficulty
Tuning
intermediate
D A D G B E
Credits to crmrz for Tabbing it on a Forum Post ^_^
Since he didn't sumbit a tab, I did.
I made a few tweaks though but It's all thanks to crmrz.


Pray - Tommy Heavenly6


Intro:
1st Guitar
e|----------------------------------------------------------------------|
B|----------------------------------------------------------------------|
G|--11----------------11------------------------------------------------|
D|--9----9----7/9-----9----9-----12---14--------------------------------|(4x)
A|--x----x----x-------x----x-----x-----x--------------------------------|
D|--9----9----7/9-----9----9-----12---14--------------------------------|

2nd Guitar:
e|-----------------------------------------------|
B|-----------------------------------------------|
G|--------------7--------------------------------|
D|--9-----5-----7---7----------------------------| (4x)
A|--9-----5-----5---7----------------------------|
D|--9-----5---------7----------------------------|


Verse:
e|-----------------------------------------------|
B|-----------------------------------------------|
G|--------------7--------------------------------|
D|--9-----5-----7---7----------------------------| (4x)
A|--9-----5-----5---7----------------------------|
D|--9-----5---------7----------------------------|

Pre-Chorus:
e|----------------------------------------|---------------------------------|
B|----------------------------------------|---------------------------------|
G|----------------4-----1/2--2222---------|--------------------6---8--------|
D|---1-----2------4-----xx---xxxxx--------|(3x)---------1---2--6---8--------|
A|---1-----2------2-----1/2--2222---------|-------------1---2--4---6--------|
D|---1-----2------------------------------|-------------1---2---------------|



Chorus:
e|------------------------------------------------|-------------------------|
B|------------------------------------------------|-------------------------|
G|--------------4-----------------------6----8----|-----------9----11-------|
D|---6-----2----4------4--2--1-----2----6----8----|(2x)-------9----11-------|
A|---6-----2----2------4--2--1-----2----4----6----|-----------7----9--------|
D|---6-----2-----------4--2--1-----2--------------|-------------------------|



Intro (Again):
1st Guitar
e|----------------------------------------------------------------------|
B|----------------------------------------------------------------------|
G|--11----------------11------------------------------------------------|
D|--9----9----7/9-----9----9-----12---14--------------------------------|(4x)
A|--x----x----x-------x----x-----x-----x--------------------------------|
D|--9----9----7/9-----9----9-----12---14--------------------------------|

2nd Guitar:
e|-----------------------------------------------|
B|-----------------------------------------------|
G|--------------7--------------------------------|
D|--9-----5-----7---7----------------------------| (4x)
A|--9-----5-----5---7----------------------------|
D|--9-----5---------7----------------------------|

Verse:
e|-----------------------------------------------|
B|-----------------------------------------------|
G|--------------7--------------------------------|
D|--9-----5-----7---7----------------------------|(4x)
A|--9-----5-----5---7----------------------------|
D|--9-----5---------7----------------------------|

Pre-Chorus:
e|----------------------------------------|---------------------------------|
B|----------------------------------------|---------------------------------|
G|----------------4-----1/2--2222---------|--------------------6---8--------|
D|---1-----2------4-----xx---xxxxx--------|(3x)---------1---2--6---8--------|
A|---1-----2------2-----1/2--2222---------|-------------1---2--4---6--------|
D|---1-----2------------------------------|-------------1---2---------------|



Chorus:
e|------------------------------------------------|-------------------------|
B|------------------------------------------------|-------------------------|
G|--------------4-----------------------6----8----|-----------9----11-------|
D|---6-----2----4------4--2--1-----2----6----8----|(2x)-------9----11-------|
A|---6-----2----2------4--2--1-----2----4----6----|-----------7----9--------|
D|---6-----2-----------4--2--1-----2--------------|-------------------------|



Breakdown:

1st Guitar:
e|-------------------------------------------------|
B|-------------------------------------------------|
G|--11---------------------------------------------|
D|--9----9----7/9----------------------------------|(8x)
A|--x----x----x------------------------------------|
D|--9----9----7/9----------------------------------|

2nd Guitar:
e|-----------------------------------|
B|-----------------------------------|
G|---------4-------------------------|
D|--1--2---4-------------------------|(8x)
A|--1--2---2-------------------------|
D|--1--2-----------------------------|

Both
e|-----------------------|-------------6-6----------------------------------|
B|-----------------------|-------------7-7---9-9---6-6----88888-------------|
G|----------------4------|-------------8-8---9-9---6-6----88888-------------|
D|---1-----2------4------|(4x)---------8-8---9-9---6-6----88888-------------|
A|---1-----2------2------|-------------6-6---7-7---4-4----66666-------------|
D|---1-----2-------------|--------------------------------------------------|



Breakdown Outro:
e|------------------------------------------------|-------------------------|
B|------------------------------------------------|-------------------------|
G|--------------4-----------------------6----8----|-----------9----11-------|
D|---6-----2----x------4--2--1-----2----x----x----|(2x)-------9----11-------|
A|---x-----x----2------x--x--x-----x----4----6----|-----------7----9--------|
D|---6-----2-----------4--2--1-----2--------------|-------------------------|



Chorus:
e|------------------------------------------------|-------------------------|
B|------------------------------------------------|-------------------------|
G|--------------4-----------------------6----8----|-----------9----11-------|
D|---6-----2----4------4--2--1-----2----6----8----|(2x)-------9----11-------|
A|---6-----2----2------4--2--1-----2----4----6----|-----------7----9--------|
D|---6-----2-----------4--2--1-----2--------------|-------------------------|



Outro (Intro Again -.-)
1st Guitar
e|----------------------------------------------------------------------|
B|----------------------------------------------------------------------|
G|--11----------------11------------------------------------------------|
D|--9----9----7/9-----9----9-----12---14--------------------------------|(2x)
A|--x----x----x-------x----x-----x-----x--------------------------------|
D|--9----9----7/9-----9----9-----12---14--------------------------------|

2nd Guitar:
e|-----------------------------------------------|
B|-----------------------------------------------|
G|--------------7--------------------------------|
D|--9-----5-----7---7----------------------------|
A|--9-----5-----5---7----------------------------|
D|--9-----5---------7----------------------------|


1st Guitar
e|-----------------------------------------------|
B|-----------------------------------------------|
G|--11~~~~---------------------------------------|
D|--9~~~~----------------------------------------|
A|--x~~~~----------------------------------------|
D|--9~~~~----------------------------------------|

2nd Guitar
e|-----------------------------------------------|
B|-----------------------------------------------|
G|-----------------------------------------------|
D|--9~~~~----------------------------------------|
A|--9~~~~----------------------------------------|
D|--9~~~~----------------------------------------|








comments
We did not receive enough feedback on this tab! Please rate:
print report bad tab
1 2 3 4 5
I want to post or [tab]
guest
You may want to rate the tab now too:
select rating
Please do not post tabs as comments. Select "correction" instead!