Oops, an error
Loading. Please wait.

Ashamed Tab

502 views 1 this week
no commentswrite comment
1 2 3 4 5
please rate
add to favorites
launch autoscroll
font size
0
reset
how to read this tab
guitar tuner
Tab Pro tools
  • play this tab
  • loop segment
  • change instrument
  • show fretboard
  • metronome
×
Best way to learn
"Ashamed"
Autoscroll
slow
fast
+/-
esc
set tempo
stop
Artist: Tommy Lee
Song: Ashamed
Album: Never A Dull Moment
tabbed by: Lew Aaron Manalang
email: freakazoid_trex@hotmail.com

Tuning Eb-Ab-Db-Gb-Bb-Eb

Intro
||-----------------------------------------------------||
||---------------------0-----------------------------0-||
||-----4-------4-------4-------------4-------4-------4-||
||---2---2---2---2---2-------------2---2---2---2---2---||
||-2-------4-------0-------------2-------4-------0-----||
||-----------------------------------------------------||

2nd part of intro
||-----------------------------||
||---------------------0-----0-||
||-----4-------4-------4-----4-||
||---2---2---2---2---2-----2---||
||-2-------4-------0-----0-----||
||-----------------------------||

Verse 1(acoustic guitar):
||--------------------------------------------------------||
||--------------------0-----0---------------------0-----0-||
||-----4--------------4-----4------4--------------4-----4-||
||---2---2---2------2-2---2-2----2---2---2------2-2---2-2-||
||-2-------4---4--0---0-0---0--2-------4---4--0---0-0---0-||
||--------------------------------------------------------||

Prechorus
||-----------------------------------------------------------------------||
||-----------------------------------------------------------------------||
||-----------------------------------------------------------------------||
||-----------------------------------------------------------------------||
||-6-6-6-6--7-7-7-7--6-6-6-6--7-7-7-7-/9-9-9-9--6-6-6-6--4-4-4--7-7-7-/9-||
||-4-4-4-4--5-5-5-5--4-4-4-4--5-5-5-5-/7-7-7-7--4-4-4-4--2-2-2--5-5-5-/7-||

Chorus:
Guitar 1
||--------------------------------||
||------------------------0-----0-||
||------4--------4--------4-----4-||
||----2---2----2---2----2-----2---||
||-2--------4--------0------0-----||
||--------------------------------||
Guitar 2
||---------------------------------------||
||---------------------------------------||
||-4-4-/6-6--2-2-2-2--4-4--/6-6--2-2-2-2-||
||-4-4-/6-6--2-2-2-2--4-4--/6-6--2-2-2-2-||
||-2-2-/4-4--0-0-0-0--2-2--/4-4--0-0-0-0-||
||---------------------------------------||

Verse 2:
||--------------------------------||
||------------------------0-----0-||
||------4--------4--------4-----4-||
||----2---2----2---2----2-----2---||
||-2--------4--------0------0-----||
||--------------------------------||

This song rocks!! It kicks major ass!!
comments
We did not receive enough feedback on this tab! Please rate:
print report bad tab
1 2 3 4 5
I want to post or [tab]
guest
You may want to rate the tab now too:
select rating
Please do not post tabs as comments. Select "correction" instead!