Oops, an error
Loading. Please wait.

Blue Tab

504 views 1 this week
no commentswrite comment
1 2 3 4 5
3 more votes to show rating
add to favorites
launch autoscroll
font size
0
reset
how to read this tab
guitar tuner
Autoscroll
slow
fast
+/-
esc
set tempo
stop
Help us to improve Ultimate-Guitar.com Take our survey!
×
This is a good song.  Not that hard.  Listen to the song for timing and repetition

Drop D tuning
PM     palm muting
x      muffled strings

Intro/Verse  (Clean)
e[---------------------------------------------------------------
B[------------------------------------------8-8--------8---6---6-
G[-----14----14-14------12----------12------7---7------7---5---5-
D[--12----12----12------10--10------10------5-----5----5---3-x-3-
A[--------------12------10----10----10---x--5----------5---3-x-3-
D[--------------12--12--10------10--10---x--5--------5-5---3-x-3-

An acoustic guitar joins in on the chorus.
e[-----------------------------------------------------------------
B[--15---15-15----15-------13-------13--13----8---8-8------6----6--
G[--14---14-14----14-------12-------12--12----7---7-7------5----5--
D[--12---12-12-0--12-------10-------10--10----5---5-5---x--3----3--
A[--12---12-12-0--12---x---10-------10--10----5---5-5---x--3--x-3--
D[--12---12-12-0--12---x---10--0-0--10--10----5---5-5---x--3--x-3--
               PM             PM.. 

Bridge  Acoustic and clean electic guitar play at the same time
e[---------------------------------------------------------
B[------------------------------------------------8--8-8---
G[--14--14----14---14-14--14-14---12-12-----------7--7-7---
D[--12-----12-12---11-11--11-11---10--------------5--5-5---
A[--12--------12---11-11--11-11---10----10---10---5--5-5---
D[--12--------12---11-11--11-11---10------10-10---5--5-5---

Repeat this a few times, then play this with a distorted tone
e[-----------------------------------------------------
B[--3------3--3----------------------------------------
G[--2------2--2---5-----5--5---------------------------
D[--0------0--0---5-----5--5----5-----5--5---5--3---3--
A[----------------3-----3--3----5-----5--5---5--3---3--
D[------------------------------5-----5--5---5--3---3--

Then there's this weird DJ solo that I could NOT figure out how to play at all.

Repeat the chorus a few times, and then you're done.
Suggest correction
Give kudos to tab author, rate the tab!
1 2 3 4 5
comments
print report bad tab
guest
You may want to rate the tab now too:
select rating
Wanna post a correction for this tab? Suggest correction