Oops, an error
Loading. Please wait.

Good Times Tab

version 2
version 2

Whole song

Interactive

1,524 views 1 this week
no commentswrite comment
1 2 3 4 5
worth learning
x 2
add to favorites
launch autoscroll
font size
0
reset
how to read this tab
guitar tuner
Tab Pro tools
  • play this tab
  • loop segment
  • change instrument
  • show fretboard
  • metronome
Autoscroll
slow
fast
+/-
esc
set tempo
stop
Contributor
This is a Different way to play Good Times
I Don't Like tommy lee but i can still play his song
By Christopher Mcwhirter

E-3-3-----2-3-2-------|-3-3-----2-3-2--------|
B-3-3--3--3-3-3-------|-3-3--3--3-3-3--------|
G-0-0--2--2-2-2--5-5-5|-0-0--2--2-2-2--5-5-5-|
D-0-0--0--0-0-0--5-5-5|-0-0--0--0-0-0--5-5-5-|
A----------------3-3-3|----------------3-3-3-|
E-3-3-----2-3-2-------|-3-3-----2-3-3--------|

Play the Part Above for the Verse or play THIS RHYTHM PART

E-----------------|-----------------|
B-------3---------|-------3---------|
G-------2---5-5-5-|-------2---5-5-5-|
D-5-5---0---5-5-5-|-5-5---0---5-5-5-|
A-5-5-------3-3-3-|-5-5-------3-3-3-|
E-3-3-------------|-3-3-------------|

E-3-3-----2-3-2-------|-3-3-----2-3-2--------|
B-3-3--3--3-3-3-------|-3-3--3--3-3-3--------|
G-0-0--2--2-2-2--5-5-5|-0-0--2--2-2-2--5-5-5-|
D-0-0--0--0-0-0--5-5-5|-0-0--0--0-0-0--5-5-5-|
A----------------3-3-3|----------------3-3-3-|
E-3-3-----2-3-2-------|-3-3-----2-3-3--------|

Chorus:

E-3-3-------------|-3-3-2-2-0--------|
B-3-3--3-3--------|-3-3--------------|
G-0-0--2-2--5-5-5-|-0-0--------5-5-5-|
D-0-0--0-0--5-5-5-|-5-5-4-4-2--5-5-5-|
A-----------3-3-3-|-5-5-4-4-2--3-3-3-|
E-3-3-------------|-3-3-2-2-0--------|


E-3-3-------------|-3-3-2-2-0--------|
B-3-3--3-3--------|-3-3--------------|
G-0-0--2-2--5-5-5-|-0-0--------5-5-5-|
D-0-0--0-0--5-5-5-|-5-5-4-4-2--5-5-5-|
A-----------3-3-3-|-5-5-4-4-2--3-3-3-|
E-3-3-------------|-3-3-2-2-0--------|

Then:

E-3-3-----2-3-2-------|-3---5--5-5-3-10-|
B-3-3--3--3-3-3-------|-3-3-3--3-3-3----|
G-0-0--2--2-2-2--5-5-5|-0---0-----------|
D-0-0--0--0-0-0--5-5-5|-----------------|
A----------------3-3-3|-----0-----------|
E-3-3-----2-3-2-------|-3------------10-|

Repeat Verse:
Repeat Chorus:
Then

E------------------------------------------5-5-5-|
B-3-3---------3-3--------3-3---------3-3-3-5-5-5-|
G-2-2-5-5-5---2-2-5-5-5--2-2--5-5-5--2-2-2-2-2-2-|
D-0-0-5-5-5---0-0-5-5-5--0-0--5-5-5--0-0-0-0-0-0-|
A-----3-3-3-------3-3-3-------3-3-3--------------|
E------------------------------------------------|

E-3-3-----2-3-2-------|
B-3-3--3--3-3-3-------|
G-0-0--2--2-2-2--5-5-5|
D-0-0--0--0-0-0--5-5-5|
A----------------3-3-3|
E-3-3-----2-3-2-------|

Repeat Chorus 2x more

E-8-8-7-7-3-3-5-3-|
B---------------3-|
G---------------0-|
D-----------------|
A-----------------|
E---------------3-|
comments
We did not receive enough feedback on this tab! Please rate:
print report bad tab
1 2 3 4 5
I want to post or [tab]
guest
You may want to rate the tab now too:
select rating
Please do not post tabs as comments. Select "correction" instead!