Oops, an error
Loading. Please wait.

Como Olvidar Tab

version 1
version 1

Whole song

61 views 1 this week
no commentswrite comment
1 2 3 4 5
3 more votes to show rating
add to favorites
launch autoscroll
font size
0
reset
how to read this tab
guitar tuner
Autoscroll
slow
fast
+/-
esc
set tempo
stop
Help us to improve Ultimate-Guitar.com Take our survey!
×
Bueno esta canción es una de mis preferidas y ojala sea de su agrado.
esta cancion esta dedicada para la chika kien m kita el sueño y
m roba el corazon... para Cinthya :$ con muxo amor!!...
Te Quiero Musho Mi Princesita!!(L)(K)(F) :$


Intro:

       e.---------------1.-----------------------------------------
       B.---2/3------------- ----------5--3.-3-2/3/2-------------2-
       G.--------4-2-1-------1/2.--2/4-----------------4-2-2----2--
       D.------------------4-----------------------------------2---
       A.-----------------------------------------------------0----
       E.----------------------------------------------------------

    (x)                (y)
D.----------     B.----------
A.-----2----     G.-2h4------
E. -0/2-----     D.-----4-2--

(x)    Bm       D        A     E
e.--------------------------------0----
B.-----3--------3--------2-----0-------
G.------4-----2---2------2-----1-------
D.---4------0----------2---------------
A.-2-----------------0---0-----2-------
E.-------------------------------------
Desde que te fuiste aquí la situación


(x)    Bm        D       A     E     A
e.-------------------------------------
B.-----3--------3--------2-----0-----2-
G.------4-----2---2------2-----1-----2-
D.---4------0----------2---------------
A.-2-----------------0---0-----2-----0-
E.-------------------------------------
  a cambiado para mal

(x)    Bm       D        A     E
e.--------------------------------0----
B.-----3--------3--------2-----0----0--
G.------4-----2---2------2-----1-------
D.---4------0----------2---------------
A.-2-----------------0---0-----2-------
E.-------------------------------------
Desde que te fuistes para estar con el

(x)   F#      E       A
e.----------------------------------
B.-----2-------0------2------2------
G.------2--------1----2----2--------
D.---4-------2--------2--2----------
A.---------2----------0-------------
E.-2--------------------------------
  se que sufres tu también


  Te marchaste en busca
  de un lugar mejor
  que oportuna desición
  te marchaste apenas sin mirar atras
  ponte tu en mi situacion


           C#m     F#m   (y)
Como olvidar tus ojos
      Bm           D
si me miran desde el cuadro
          A             E
que colgaste en la pared
           C#m     F#m   (y)
como olvidar tu nombre
        Bm          D           A
si lo llevo aqui quemándome la piel


  Mientras limpias sus trofeos de futbol
  y le preparas un cafe
  mientras ve un partido en la televisión
  yo aqui solo pienso en ti


  te a llevado a sitios caros a cenar
  y has pagado tu mitad
  mas como siempre has dicho el postre es lo mejor
  nadie lo hace como yo


           C#m     F#m
como olvidar tu cuerpo
      Bm           D            A             E
si mi cama esta tan fria desde que no estas aqui
           C#m     F#m
como olvidar tus labios
          Bm           D           A
si mi espejos esta marcado de carmín

           A7          D
como olvidar tus ojos
         F#m  Bm    E
como olvidar tu nombre
          A            E            F#m    D
y aunque no pueda olvidarte se muy bien
A             E              A
  que tu tambien piensas en mi


Bm  D  A  E   (3 VUELTAS)
F#m  E  A


C#m          F#m
Como olvidar tus ojos
         Bm         D         A                  E
que me miran desde el cuadro que colgaste en la pared
          C#m          F#m
como olvidar tu nombre
         Bm           D         A
si lo llevo aqui quemándome la piel

           A7          D
como olvidar tus manos
         F#m Bm      E
como olvidar tu pelo
          C#m      F#m     E      D
como olvidar tu cuerpo    UUUUU  UUUUUUUU

D/F#
Y aunque no pueda olvidarte se muy bien
y aunque te hagas la importante yo se que
       Bm         D     A   E    D
e.------------------------------------0-
B.-----3--------3-------2----0-----3----
G.---2---2----2---2-----2----1---2------
D.---------0-----------------2----------
A.-2--------------------0----2----------
E.--------------------------------------

y aunque trates de negarlo se muy bien
                              A
que tu tambien piensas en mi


D/F#=032002

FIN
Suggest correction
Give kudos to tab author, rate the tab!
1 2 3 4 5
comments
print report bad tab
guest
You may want to rate the tab now too:
select rating
Wanna post a correction for this tab? Suggest correction