Oops, an error
Loading. Please wait.

Como Olvidar Tab

version 2
version 2

Whole song

37 views 1 this week
no commentswrite comment
1 2 3 4 5
3 more votes to show rating
add to favorites
launch autoscroll
font size
0
reset
how to read this tab
guitar tuner
×
Best way to learn
"Como Olvidar"
Autoscroll
slow
fast
+/-
esc
set tempo
stop
La version balada acustica de esta hermosa canción. Es la version
mas parecida a la original
Cualquier duda, comentario, aclaracion a Camilo_Agu_411@

Intro

e-|--------------------------------------------------|
B-|-2/3/2-0-----3/5------7-----5---3---2/3/2-0-------|
G-|--------2--1------1-2---1-2-----2-----------2-2---|
D-|--------------------------------------------------|
A-|--------------------------------------------------|
E-|--------------------------------------------------|

Estrofa
         Bm          D     A    A  E  A
e-|-------------------2--------------------------|
B-|----------3--------3----2--3--2--0--2---------|
G-|----------4------2---2--2--2--2--1--2---------|
D-|--------4---4--0--------2-----2--2--2---------|
A-|------2-----------------0--------2------------|
E-|--2-5-----------------------------------------|
         Desde que ..................

         Bm          D      A    E  A
e-|-------------------2--------------------------|
B-|----------3--------3-------2--0--2------------|
G-|----------4------2---2-----2--1--2------------|
D-|--------4---4--0---------2----2--2------------|
A-|------2-----------------0-----2---------------|
E-|--2-5-----------------------------------------|
         Ha cambiado ...............

       Bm          D     A    A  E  A
e-|-------------------2--------------------------|
B-|----------3--------3----2--3--2--0--2---------|
G-|----------4------2---2--2--2--2--1--2---------|
D-|--------4---4--0--------2-----2--2--2---------|
A-|------2-----------------0--------2------------|
E-|--2-5-----------------------------------------|
         Desde que ..................

         Bm          D      A    E  A
e-|-------------------2--------------------------|
B-|----------3--------3-------2--0--2------------|
G-|----------4------2---2-----2--1--2------------|
D-|--------4---4--0---------2----2--2------------|
A-|------2-----------------0-----2---------------|
E-|--2-5-----------------------------------------|
         Se que sufres ...............


(Se repite alternadamente otra vez)


          C#m     F#m
Como olvidar tus ojos
      Bm           D
si me miran desde el cuadro
          A             E
que colgaste en la pared
           C#m     F#m
como olvidar tu nombre
        Bm           A           E
si lo llevo aqui quemandome la piel


         Bm          D     A    A  E  A
e-|-------------------2--------------------------|
B-|----------3--------3----2--3--2--0--2---------|
G-|----------4------2---2--2--2--2--1--2---------|
D-|--------4---4--0--------2-----2--2--2---------|
A-|------2-----------------0--------2------------|
E-|--2-5-----------------------------------------|
          Mientras ..................

         Bm          D     A
e-|-------------------2--------------------------|
B-|----------3--------3-------2--0--2------------|
G-|----------4------2---2-----2--1--2------------|
D-|--------4---4--0---------2----2--2------------|
A-|------2-----------------0-----2---------------|
E-|--2-5-----------------------------------------|
         y le preparas un cafe..............

(Se repite esta misma secuencia 3 veces mas)

           C#m     F#m
como olvidar tu cuerpo
      Bm           D            A             E
si mi cama esta tan fria desde que no estas aqui
           C#m     F#m
como olvidar tus labios
          Bm            A          E
SI MI  espejo esta marcado de carmin

           A          D
como olvidar tus ojos
         Bm A      E
como olvidar tu nombre
          A            E            F#m    D
y aunque no pueda olvidarte se muy bien
A             E              A
  que tu tambien piensas en mi


(Puente)


        C#m     F#m
Como olvidar tus ojos
      Bm           D
si me miran desde el cuadro
          A             E
que colgaste en la pared
           C#m     F#m
como olvidar tu nombre
        Bm           A           E
si lo llevo aqui quemandome la piel

           A          D
como olvidar tus manos
         Bm A      E
como olvidar tu pelo
          C#m      F#m     E      D
como olvidar tu cuerpo    UUUUU  UUUUUUUU


          A            E            F#m    D
y aunque no pueda olvidarte se muy bien
          A            E            F#m    D
y aunque te hagas la importante yo se que
          A            E            F#m    D
y aunque trates de negarlo se muy bien
          A    E          A
que tu tambien piensas en mi
Suggest correction
Give kudos to tab author, rate the tab!
1 2 3 4 5
comments
print report bad tab
guest
You may want to rate the tab now too:
select rating
Wanna post a correction for this tab? Suggest correction