Oops, an error
Loading. Please wait.

Yo Soy El Rock Tab

version 2
version 2

Whole song

6 views 1 this week
no commentswrite comment
1 2 3 4 5
3 more votes to show rating
add to favorites
launch autoscroll
font size
0
reset
how to read this tab
guitar tuner
×
Best way to learn
"Yo Soy El Rock"
Autoscroll
slow
fast
+/-
esc
set tempo
stop
Este tema en realidad las notas se tocan en 5ta si se usa
una electrica pero se puede tocar al natural tambien...

Dedicado para JERE (mi sobrino)

INTRO: Dx2 | G | A


D       G     A
Enchufo mi guitarra
D         G           A
subo el volumen del amplificador
D            G           A
siento en el aire como empiesa a subir la tencion

Dx2 | G | A

1-----10-----------------------------------------------
2--------10--8-------8--10--8--------------------------
3----------------11------------11--9--7----------------
4------------------------------------------------------
5------------------------------------------------------
6------------------------------------------------------

1-----10-----------------------------------------------
2--------10--8-------8--10-----------------------------
3----------------11------------------------------------
4------------------------------------------------------
5------------------------------------------------------
6------------------------------------------------------
  D     G    A
estamos conectados,
D        G        A
por el sonido del rock and roll
D      G         A
no hay nada como esta sensacion

Dx2 | G | A
1-----10-----------------------------------------------
2--------10--8-------8--10--8--------------------------
3----------------11------------11--9--7----------------
4------------------------------------------------------
5------------------------------------------------------
6------------------------------------------------------

1-----10-----------------------------------------------
2--------10--8-------8--10-----------------------------
3----------------11------------------------------------
4------------------------------------------------------
5------------------------------------------------------
6------------------------------------------------------

G
cuando no se quien soy
D           G            A
o necesito identificacion,

           D     G  A
yo soy el rock,
           D     G  A
yo soy el rock,
   D
yo soy una musica
  G                 A        D     G  A
es un sentimiento del corazon
          D      G   A
yo soy el rock

D      G        A
cuando sientas un estruendo
D    G       A
que viene de tu interior
D                    G             A
es el trueno de esta tempestad del rock

D D G A
1-----10-----------------------------------------------
2--------10--8-------8--10--8--------------------------
3----------------11------------11--9--7----------------
4------------------------------------------------------
5------------------------------------------------------
6------------------------------------------------------

1-----10-----------------------------------------------
2--------10--8-------8--10-----------------------------
3----------------11------------------------------------
4------------------------------------------------------
5------------------------------------------------------
6------------------------------------------------------


G
cuando no se quien soy
D                G                   A
o necesito identificacion,

          D    G  A
yo soy el rock,
          D    G  A
yo soy el rock,
   D
yo soy una musica,
  G                 A        D     G  A
es un sentimiento del corazon

          D     G  A
yo soy el rock,
          D     G  A
yo soy el rock,
   D
yo soy una musica
  G                  A       D      G  A
es un sentimiento del corazon
          D
yo soy el rock

Dx3
Suggest correction
Give kudos to tab author, rate the tab!
1 2 3 4 5
comments
print report bad tab
guest
You may want to rate the tab now too:
select rating
Wanna post a correction for this tab? Suggest correction