Oops, an error
Loading. Please wait.

867-5309 Jenny Bass Tab

version 2
version 2

Whole song

Interactive

11,109 views 81 this week
no commentswrite comment
1 2 3 4 5
accurate
x 5
add to favorites
launch autoscroll
font size
0
reset
guitar tuner
Tab Pro tools
  • play this tab
  • loop segment
  • change instrument
  • show fretboard
  • metronome
×
Best way to learn
"867-5309 Jenny"
Autoscroll
slow
fast
+/-
esc
set tempo
stop
Contributor
Difficulty
novice
867-5309 Jenny
Tommy Tutone

Tuning:Std

Intro: After two measures guitar
G|---------------------------------------------------------------------|
D|---------------------------------------------------------------------|
A|----55----22-----55----22-4-2----------------------------------------|
E|--2----55-----22----55--------5--------------------------------------|

Verse:
G|----------------------------------------------------------------------|
D|----------------------------------------------------------------------|
A|----55-----22-----55------22-4-2--------(x5)--------------------------|
E|--2----5-5-----22-----5-5--------5------------------------------------|

Chorus:
G|---------------------------------------------------------------------|
D|---------------------------------------------------------------------|
A|--7777777-5-4-----7777777----4-5-4----7777777-5-4--------------------|
E|--------------5-7---------5--------5--------------5-7----------------|

Play verse over  '687-5309'
Repeat verse (x5)
repeat chorus
Play verse over '867-5309'

G|--------------------------2-24---------------------------------------|
D|------2-----2-----4-44--4--------------------------------------------|
A|--4--4-4--4--4---4--------------(x2)---------------------------------|
E|---------------------------------------------------------------------|

Two measure rest then..
G|---------2--4-------2--4---2-----------------------------------------|
D|--4-----------4--------------4--2------------------------------------|
A|-----5-----------5---------------------------------------------------|
E|---------------------------------------------------------------------|

play verse over guitar solo (x2)
Repeat chorus
play verse over '867-5309"
comments
print report bad tab
I want to post or [tab]
guest
You may want to rate the tab now too:
select rating
Please do not post tabs as comments. Select "correction" instead!