Oops, an error
Loading. Please wait.

Monday Loop Tab

version 1
version 1

Whole song

928 views 45 this week
no commentswrite comment
1 2 3 4 5
x 10
add to favorites
launch autoscroll
font size
0
reset
how to read this tab
guitar tuner
×
Best way to learn
"Monday Loop"
Autoscroll
slow
fast
+/-
esc
set tempo
stop
Author
Difficulty
Song - https://www.youtube.com/watch?v=c8kVMGWDO4w

[Intro]
e|---------------------------------------------------|
B|--8--6-6--4-3--1-----------------------------------|
G|------------------------0-3-5-7-8-10-12---7--------|
D|---------------------------------------------------|
A|---------------------------------------------------|
E|---------------------------------------------------|
[Main Riff]
e|---------------------------------------------------|
B|3-8--6-6--4-3--1-----------------------------------|
G|------------------------0-3-5-7-8-10-12---7--------|
D|---------------------------------------------------|
A|---------------------------------------------------|
E|---------------------------------------------------|

Play [Main riff] the whole song
Suggest correction
comments
print report bad tab
guest
You may want to rate the tab now too:
select rating
Wanna post a correction for this tab? Suggest correction