Oops, an error
Loading. Please wait.

Catcher tab

190 views 6 this week
no commentswrite comment
1 2 3 4 5
2 more votes to show rating
add to favorites
×
Save as Personal and add changes to this tab that will be seen only by you. Learn more ›
×
You can save this tab as Personal to edit and correct it or add notes. All changes will be seen only by you. Learn more »
launch autoscroll
font size
0
reset
how to read this tab
guitar tuner
edit
Autoscroll
slow
fast
+/-
esc
set tempo
stop
[Intro] 
(0:00 - 0:30)
E|---------------------|---------------------|---------------------|---------------------|
B|---------------------|-----------3---------|----------------3----|-0-------------------|
G|-7----7---------7----|-7---------0---------|-----------0---------|----------------0----|
D|---------------------|---------------------|---------------------|-----------5---------|
A|-7----7---------5----|-5---------3---------|------5--------------|------7--------------|
E|---------------------|---------------------|---------------------|---------------------|

E|-0-------------------|---------------------|---------------------|---------------------|
B|------0---------3----|-0-------------------|-0-------------------|---------------------|
G|---------------------|------0----2----4----|------4----2----0----|-----------0---------|
D|---------------------|---------------------|---------------------|-0----2--------------|
A|-----------3---------|---------------------|---------------------|----------------2----|
E|---------------------|---------------------|---------------------|---------------------|

E|---------------------|-0-------------------|------2--------------|---------------------|
B|------3--------------|------3--------------|------3--------------|------3----0---------|
G|-0-------------------|-----------0---------|------0--------------|-0-------------------|
D|----------------2----|---------------------|-0----0--------------|---------------------|
A|-----------0---------|----------------3----|------3---------5----|----------------7----|
E|---------------------|---------------------|---------------------|---------------------|

E|-----------0---------|---------------------|------3--------------|------2----0---------|
B|----------------0----|-----------3----0----|-----------0---------|----------------0----|
G|------0--------------|------0--------------|-0-------------------|---------------------|
D|-5-------------------|---------------------|---------------------|-4-------------------|
A|---------------------|-0-------------------|---------------------|---------------------|
E|---------------------|---------------------|----------------3----|---------------------|

E|-------------|---------------------|---------------------|---------------------|
B|-------------|-3----3----3---------|-3----0--------------|------0--------------|
G|-0-----------|-0----0----0---------|-----------0----2----|-4---------4----2----|
D|-------------|---------------------|---------------------|---------------------|
A|-------------|-2----2----2---------|---------------------|---------------------|
E|-------------|---------------------|---------------------|---------------------|

E|---------------------|-2----2--------------|---------------------|----------------2----|
B|---------------------|-3----3---------8----|------8----8---------|----------------3----|
G|-0--------------0----|-0----0---------0----|------0----0---------|-----------0----0----|
D|------0----2---------|---------------------|---------------------|------0---------0----|
A|---------------------|-3----3---------7----|------7----7---------|-3--------------3----|
E|---------------------|---------------------|---------------------|---------------------|

E|-3---------2----0----|---------------------|------0--------------|---------------------|
B|---------------------|-----------3---------|-----------3---------|------3----0---------|
G|---------------------|------0--------------|----------------0----|----------------0----|
D|---------------------|---------------------|-2-------------------|---------------------|
A|---------------------|-2--------------0----|---------------------|-3-------------------|
E|---------------------|---------------------|---------------------|---------------------|

E|---------------------|---------------------|---------------------|---------------------|
B|-----------0---------|---------------------|----------------3----|-0-------------------|
G|-2----4---------4----|-2----0--------------|-0---------0---------|----------------0----|
D|---------------------|-----------0----2----|---------------------|-----------5---------|
A|---------------------|---------------------|------5--------------|------7--------------|
E|---------------------|---------------------|---------------------|---------------------|

E|-0-------------------|----------------3----|----------------2----|-0-------------------|
B|------0--------------|-3----0--------------|-0-------------------|------0--------------|
G|----------------0----|-----------0---------|---------------------|-----------0---------|
D|---------------------|---------------------|-----------4---------|---------------------|
A|-----------0---------|---------------------|---------------------|---------------------|
E|---------------------|---------------------|------3--------------|---------------------|

[Verse 1] 
(0:30 - 0:58)
E|---------------------|---------------------|---------------------|---------------------|
B|-----------3---------|-8--------------8----|-----------12--------|------12-------------|
G|------0--------------|------0--------------|-0--------------0----|-----------0---------|
D|---------------------|---------------------|---------------------|---------------------|
A|-2--------------7----|-----------7---------|------10-------------|-10-------------3----|
E|---------------------|---------------------|---------------------|---------------------|

E|-----------0---------|---------------------|-0-------------------|---------------------|
B|----------------3----|---------------------|------3--------------|-7--------------7----|
G|------0--------------|-0--------------0----|-----------0---------|------0--------------|
D|-0-------------------|-----------0---------|---------------------|---------------------|
A|---------------------|------3--------------|----------------5----|-----------5---------|
E|---------------------|---------------------|---------------------|---------------------|

E|---------------------|---------------------|-----------0---------|---------------------|
B|-----------8---------|------8--------------|----------------3----|---------------------|
G|-0--------------0----|-----------0---------|------0--------------|-0--------------0----|
D|---------------------|---------------------|-0-------------------|-----------0---------|
A|------7--------------|-7--------------3----|---------------------|------3--------------|
E|---------------------|---------------------|---------------------|---------------------|

E|-0-------------------|---------------------|---------------------|---------------------|
B|------3--------------|-8--------------8----|-----------12--------|------12-------------|
G|-----------0---------|------0--------------|-0--------------0----|-----------0---------|
D|---------------------|---------------------|---------------------|---------------------|
A|----------------7----|-----------7---------|------10-------------|-10-------------3----|
E|---------------------|---------------------|---------------------|---------------------|

E|-----------0---------|---------------------|-0-------------------|---------------------|
B|----------------3----|---------------------|------3--------------|-7--------------7----|
G|------0--------------|-0--------------0----|-----------0---------|------0--------------|
D|-0-------------------|-----------0---------|---------------------|---------------------|
A|---------------------|------3--------------|----------------5----|-----------5---------|
E|---------------------|---------------------|---------------------|---------------------|

E|---------------------|---------------------|---------------------|---------------------|
B|-----------8---------|------8---------3----|------3----3---------|-8----8---------7----|
G|-0--------------0----|-----------0----0----|------0----0---------|-7----7---------7----|
D|---------------------|---------------------|---------------------|---------------------|
A|------7--------------|-7--------------3----|------3----3---------|-7----7---------5----|
E|---------------------|---------------------|---------------------|---------------------|

[Verse 2] 
(0:58 - 1:28)
E|---------------------|---------------------|-----------0---------|-----------10---10---|
B|-7---------3---------|-----------3----0----|----------------0----|---------------------|
G|-7---------0---------|------0--------------|---------------------|-0-------------------|
D|---------------------|---------------------|------5--------------|---------------------|
A|-5---------3---------|-5-------------------|-7-------------------|------3--------------|
E|---------------------|---------------------|---------------------|---------------------|

E|-10---8----7---------|------0--------------|-0--------------0----|---------------------|
B|----------------8----|---------------------|---------------------|-5-------------------|
G|---------------------|-7--------------7----|-----------5---------|------5--------------|
D|---------------------|---------------------|---------------------|----------------0----|
A|---------------------|---------------------|---------------------|-----------3---------|
E|---------------------|-----------7---------|------5--------------|---------------------|

E|------2----3---------|-2----2--------------|---------------------|------0--------------|
B|------3--------------|---------------------|-3----0--------------|-----------0---------|
G|-0----0--------------|----------------0----|---------------------|-0-------------------|
D|------0--------------|---------------------|----------------5----|---------------------|
A|------3--------------|-----------5---------|-----------7---------|----------------0----|
E|---------------------|---------------------|---------------------|---------------------|

E|---------------------|-3-------------------|-2----0--------------|---------------------|
B|------3----0---------|------0--------------|-----------0---------|----------------3----|
G|-0--------------0----|---------------------|----------------0----|-----------0---------|
D|---------------------|----------------4----|---------------------|---------------------|
A|---------------------|---------------------|---------------------|------2--------------|
E|---------------------|-----------3---------|---------------------|---------------------|

E|---------------------|---------------------|---------------------|---------------------|
B|------3----0---------|-----------0---------|---------------------|---------------------|
G|----------------0----|-2----4---------4----|-2----0--------------|-0--------------0----|
D|---------------------|---------------------|-----------0----2----|---------------------|
A|-3-------------------|---------------------|---------------------|------5--------------|
E|---------------------|---------------------|---------------------|---------------------|

E|---------------------|------0--------------|-----------2----3----|------2----0---------|
B|-3----0--------------|-----------0---------|-----------3---------|---------------------|
G|---------------------|-0-------------------|-----------0---------|---------------------|
D|----------------5----|---------------------|------0----0---------|---------------------|
A|-----------7---------|----------------3----|-----------3---------|----------------2----|
E|---------------------|---------------------|---------------------|---------------------|

E|---------------------|-0-------------------|---------------------|---------------------|
B|------3--------------|------3--------------|-3----0--------------|------0--------------|
G|-0-------------------|-----------0---------|-----------0----2----|-4---------4----2----|
D|----------------2----|---------------------|---------------------|---------------------|
A|-----------0---------|----------------3----|---------------------|---------------------|
E|---------------------|---------------------|---------------------|---------------------|

E|---------------------|---------------------|----------------0----|---------------------|
B|---------------------|-----------3----0----|---------------------|-0--------------3----|
G|-0--------------0----|------0--------------|-----------0---------|-----------0---------|
D|------0----2---------|---------------------|------5--------------|---------------------|
A|---------------------|-5-------------------|-7-------------------|------0--------------|
E|---------------------|---------------------|---------------------|---------------------|

E|-----------3---------|-----------2----0----|---------------------|---------------------|
B|-0--------------0----|---------------------|-0-------------------|------3---------8----|
G|------0--------------|---------------------|------0--------------|-0-------------------|
D|---------------------|------4--------------|---------------------|---------------------|
A|---------------------|---------------------|----------------2----|-----------7---------|
E|---------------------|-3-------------------|---------------------|---------------------|

[Verse 3] 
(1:28 - 1:51)
E|---------------------|---------------------|---------------------|------0--------------|
B|-----------8---------|------12-------------|-12------------------|-----------3---------|
G|-0--------------0----|-----------0---------|------0--------------|-0--------------0----|
D|---------------------|---------------------|----------------0----|---------------------|
A|------7--------------|-10-------------10---|-----------3---------|---------------------|
E|---------------------|---------------------|---------------------|---------------------|

E|----------------0----|---------------------|---------------------|---------------------|
B|---------------------|-3--------------7----|-----------7---------|------8--------------|
G|-----------0---------|------0--------------|-0--------------0----|-----------0---------|
D|------0--------------|---------------------|---------------------|---------------------|
A|-3-------------------|-----------5---------|------5--------------|-7--------------7----|
E|---------------------|---------------------|---------------------|---------------------|

E|---------------------|------0--------------|----------------0----|---------------------|
B|-8-------------------|-----------3---------|---------------------|-3--------------8----|
G|------0--------------|-0--------------0----|-----------0---------|------0--------------|
D|----------------0----|---------------------|------0--------------|---------------------|
A|-----------3---------|---------------------|-3-------------------|-----------7---------|
E|---------------------|---------------------|---------------------|---------------------|

E|---------------------|---------------------|---------------------|---------------------|
B|-----------12--------|------10-------------|-13------------------|-----------0---------|
G|-0--------------0----|-----------0---------|------0---------4----|-2----0----0---------|
D|---------------------|---------------------|---------------------|-----------2---------|
A|------10-------------|-9--------------12---|---------------------|-----------3---------|
E|---------------------|---------------------|---------------------|---------------------|

E|---------------------|---------------------|---------------------|---------------------|
B|-3----3----3---------|-0----0----0----0----|-0---------3----3----|-3----3----3----0----|
G|-0----0----0---------|-0----0----0----0----|-0---------0----0----|-0----0----0----0----|
D|-2----2----2---------|-2----2----2----2----|-2---------4----4----|-4----4----4----5----|
A|-3----3----3---------|-3----3----3----3----|-3---------5----5----|-5----5----5----7----|
E|---------------------|---------------------|---------------------|---------------------|

[Verse 4] 
(1:51 - 2:31)
E|---------------------|---------------------|---------------------|---------------------|
B|-0----0----0----0----|-0-------------------|-3--------------3----|-----------3---------|
G|-0----0----0----0----|-0-------------------|------0--------------|-0--------------0----|
D|-5----5----5----5----|-2-------------------|-----------0---------|------0--------------|
A|-7----7----7----7----|-3-------------------|---------------------|---------------------|
E|---------------------|---------------------|---------------------|---------------------|

E|---------------------|-2--------------2----|-----------2---------|------2--------------|
B|------3--------------|------0--------------|-0--------------0----|-----------0---------|
G|-----------0---------|-----------0---------|------0--------------|-0--------------0----|
D|-0--------------0----|---------------------|---------------------|---------------------|
A|---------------------|---------------------|---------------------|---------------------|
E|---------------------|---------------------|---------------------|---------------------|

E|-2--------------2----|-----------2---------|------2--------------|-2--------------2----|
B|------0--------------|-0--------------0----|-----------0---------|------0--------------|
G|-----------0---------|------0--------------|-0--------------0----|-----------0---------|
D|---------------------|---------------------|---------------------|---------------------|
A|---------------------|---------------------|---------------------|---------------------|
E|---------------------|---------------------|---------------------|---------------------|

E|-----------2---------|------2--------------|-2--------------2----|-----------2---------|
B|-0--------------0----|-----------0---------|------0--------------|-0--------------0----|
G|------0--------------|-0--------------0----|-----------0---------|------0--------------|
D|---------------------|---------------------|---------------------|---------------------|
A|---------------------|---------------------|---------------------|---------------------|
E|---------------------|---------------------|---------------------|---------------------|

E|------2--------------|-2--------------2----|-----------2---------|------2--------------|
B|-----------0---------|------0--------------|-0--------------0----|-----------0---------|
G|-0--------------0----|-----------0---------|------0--------------|-0--------------0----|
D|---------------------|---------------------|---------------------|---------------------|
A|---------------------|---------------------|---------------------|---------------------|
E|---------------------|---------------------|---------------------|---------------------|

E|-10-----|--------|-7------|--------|-5------|--------|-7------|--------|----------------0----|
B|--------|--------|--------|--------|--------|--------|--------|--------|---------------------|
G|-7------|--------|-4------|--------|-2------|--------|-4------|--------|-----------0---------|
D|--------|--------|--------|--------|--------|--------|--------|--------|------2--------------|
A|--------|--------|--------|--------|--------|--------|--------|--------|-0-------------------|
E|--------|--------|--------|--------|--------|--------|--------|--------|---------------------|

[Verse 5] 
(2:31 - 3:02)
E|---------------------|---------------------|---------------------|---------------------|
B|---------------------|------3--------------|-----------8---------|---------------------|
G|---------------------|-0-------------------|------0--------------|----------------0----|
D|----------------0----|---------------------|-0-------------------|-----------4---------|
A|------3--------------|----------------7----|---------------------|-5-------------------|
E|---------------------|---------------------|---------------------|---------------------|

E|---------------------|---------------------|---------------------|---------------------|
B|-3-------------------|------3--------------|----------------3----|---------------------|
G|---------------------|-0-------------------|-----------0---------|----------------0----|
D|----------------2----|---------------------|------2--------------|-----------0---------|
A|-----------0---------|----------------3----|---------------------|------7--------------|
E|---------------------|---------------------|---------------------|---------------------|

E|---------------------|---------------------|----------------0----|---------------------|
B|-8-------------------|-----------3---------|---------------------|-3-------------------|
G|---------------------|------0--------------|-----------0---------|------0--------------|
D|---------------------|-4-------------------|------2--------------|---------------------|
A|-----------5---------|---------------------|-0-------------------|-----------2----3----|
E|---------------------|---------------------|---------------------|---------------------|

E|----------------0----|---------------------|----------------0----|---------------------|
B|---------------------|-3-------------------|-8-------------------|-8-------------------|
G|-----------0---------|------0--------------|------0--------------|------0--------------|
D|------0--------------|-----------0---------|---------------------|---------------------|
A|---------------------|----------------7----|-----------7---------|-----------5---------|
E|---------------------|---------------------|---------------------|---------------------|

E|-----------0---------|---------------------|------0--------------|---------------------|
B|----------------3----|---------------------|-----------3---------|---------------------|
G|------0--------------|-0-------------------|-0--------------0----|---------------------|
D|-4-------------------|------4---------2----|---------------------|----------------0----|
A|---------------------|-----------0---------|---------------------|-2----3--------------|
E|---------------------|---------------------|---------------------|---------------------|

E|------0--------------|---------------------|---------------------|---------------------|
B|-----------3---------|------8--------------|-7-------------------|-3-------------------|
G|-0--------------0----|------0--------------|-0-------------------|-0-------------------|
D|---------------------|-0----0--------------|-0-------------------|---------------------|
A|---------------------|------7--------------|-5-------------------|-3-------------------|
E|---------------------|---------------------|---------------------|---------------------|

[Verse 6] 
(3:02 - 3:48)
E|---------------------|---------------------|---------------------|---------------------|
B|-3-------------------|------7--------------|---------------------|-3-------------------|
G|-0-------------------|------7--------------|-5---------4---------|-0-------------------|
D|---------------------|---------------------|-5---------4---------|---------------------|
A|-3-------------------|------7--------------|---------------------|-3-------------------|
E|---------------------|-0----0--------------|-5---------3---------|---------------------|

E|---------------------|---------------------|---------------------|---------------------|
B|-3-------------------|------7--------------|---------------------|-3-------------------|
G|-0-------------------|------7--------------|-5---------4---------|-0-------------------|
D|---------------------|---------------------|-5---------4---------|---------------------|
A|-3-------------------|------7--------------|---------------------|-3-------------------|
E|---------------------|-0----0--------------|-5---------3---------|---------------------|

E|---------------------|---------------------|---------------------|---------------------|
B|-3-------------------|------7--------------|---------------------|-3-------------------|
G|-0-------------------|------7--------------|-5---------4---------|-0-------------------|
D|---------------------|---------------------|-5---------4---------|---------------------|
A|-3-------------------|------7--------------|---------------------|-3-------------------|
E|---------------------|-0----0--------------|-5---------3---------|---------------------|

E|---------------------|---------------------|---------------------|---------------------|
B|-3-------------------|------7--------------|---------------------|-3-------------------|
G|-0-------------------|------7--------------|-5---------4---------|-0-------------------|
D|---------------------|---------------------|-5---------4---------|---------------------|
A|-3-------------------|------7--------------|---------------------|-3-------------------|
E|---------------------|-0----0--------------|-5---------3---------|---------------------|

E|---------------------|---------------------|---------------------|---------------------|
B|-3-------------------|------7--------------|---------------------|-3-------------------|
G|-0-------------------|------7--------------|-5---------4---------|-0-------------------|
D|---------------------|---------------------|-5---------4---------|---------------------|
A|-3-------------------|------7--------------|---------------------|-3-------------------|
E|---------------------|-0----0--------------|-5---------3---------|---------------------|

E|---------------------|---------------------|---------------------|---------------------|
B|-3-------------------|------7--------------|---------------------|-3-------------------|
G|-0-------------------|------7--------------|-5---------4---------|-0-------------------|
D|---------------------|---------------------|-5---------4---------|---------------------|
A|-3-------------------|------7--------------|---------------------|-3-------------------|
E|---------------------|-0----0--------------|-5---------3---------|---------------------|
Suggest correction
Creating personal tab
Creating personal tab
You can edit any tab online and save it as your Personal.

You can edit, replace or remove any tab part or add personal notes – all changes will be seen only by you.

Personal tabs can be accessed anytime from any device, even offline.
Learn more »
Give kudos to tab author, rate the tab!
1 2 3 4 5
comments
print report bad tab
guest
You may want to rate the tab now too:
select rating
Wanna post a correction for this tab? Suggest correction