Oops, an error
Loading. Please wait.

Al Fondo Hay Sitio Tab

version 1
version 1

Whole song

7 views 1 this week
no commentswrite comment
1 2 3 4 5
3 more votes to show rating
add to favorites
launch autoscroll
font size
0
reset
how to read this tab
guitar tuner
×
Best way to learn
"Al Fondo Hay Sitio"
Autoscroll
slow
fast
+/-
esc
set tempo
stop
Em                                D
En el mundo siempre hay que comprender
0-0-0-0-0--------0-2------------------
----------0-0--0------3---------------
--------------------------------------
--------------------------------------
--------------------------------------

-2----2----2--------------------------
----3---3----3------------------------
--------------------------------------
--------------------------------------
--------------------------------------
--------------------------------------


D                                    Em
que encuentras de todo o nada a la vez.
--------------2---0--------------------
--3-3-3-3-3-----3----------------------
-----------2-2-------------------------
---------------------------------------
---------------------------------------
---------------------------------------

3--0---3--0---3--0--------------------
--------------------------------------
--------------------------------------
--------------------------------------
--------------------------------------
--------------------------------------

Em                                       D
Que donde entran cinco tambien entran seis.
0-0-0-0-0--------0-2------------------
----------0-0--0------3---------------
--------------------------------------
--------------------------------------
--------------------------------------

-2----2----2--------------------------
----3---3----3------------------------
--------------------------------------
--------------------------------------
--------------------------------------
--------------------------------------


D                                      Em
Y si al fondo hay sitio entra de una vez.
--------------2---0--------------------
--3-3-3-3-3-----3----------------------
-----------2-2-------------------------
--------------------------------------
--------------------------------------
--------------------------------------

3--0---3--0---3--0--------------------
--------------------------------------
--------------------------------------
--------------------------------------
--------------------------------------
--------------------------------------


            D
Esto se pone bueno
-------0--2-------
0-0--0-----3------
-------------2----
------------------
------------------
------------------

           Em
Tu y yo adentro
--------0---------
3-3-1-3----0------
------------------
------------------
------------------
------------------

               D
A todos los invito
-------0--2-------
0-0--0-----3------
-------------2----
------------------
------------------
------------------

                     Em
Porque al fondo hay sitio
--------0---------
3-3-1-3----0------
------------------
------------------
------------------
------------------
            D
Esto se pone bueno
-------0--2-------
0-0--0-----3------
-------------2----
------------------
------------------
------------------
             Em
Esto se pone caliente
------------0--------
3-3-3-1-1-3----0-----
---------------------
---------------------
---------------------
              D
A todos los invito
-------0--2-------
0-0--0-----3------
-------------2----
------------------
------------------
------------------
                    Em
Porque al fondo hay sitio
--------0---------
3-3-1-3----0------
------------------
------------------
------------------
------------------
Suggest correction
Give kudos to tab author, rate the tab!
1 2 3 4 5
comments
print report bad tab
guest
You may want to rate the tab now too:
select rating
Wanna post a correction for this tab? Suggest correction