Oops, an error
Loading. Please wait.

Al Fondo Hay Sitio Tab

version 2
version 2

Whole song

22 views 1 this week
no commentswrite comment
1 2 3 4 5
3 more votes to show rating
add to favorites
launch autoscroll
font size
0
reset
how to read this tab
guitar tuner
×
Best way to learn
"Al Fondo Hay Sitio"
Autoscroll
slow
fast
+/-
esc
set tempo
stop
1/----3-7-5-3---/---3-7-5-2---/--------------------0--     /--0---0-3---7--
2/--5---------5-/-5---------3-/--1-2-3-3-3-3-3-1-3--1-     /1---0----------
3/--------------/-------------/-2--------------------- (2x)/---------------
4/--------------/-------------/-----------------------     /---------------
5/--------------/-------------/-----------------------     /---------------
6/--------------/-------------/-----------------------     /---------------

                                                      Después---/

Trompeta pasada a guitarra:


1/--3---3---3---2-2----0--/
2/----5---5---------3-3---/
3/------------------------/
4/------------------------/(4x)
5/------------------------/
6/------------------------/


1/--0------0----------------/---------------0---0---/--0----------/
2/-----0-------4----0---4---/--3----0-3---2---------/-------------/
3/--------------------------/-----------------------/-------------/
4/--------------------------/-----------------------/-------------/
5/--------------------------/-----------------------/-------------/
6/--------------------------/-----------------------/-------------/


Em                                D
En el mundo siempre hay que comprender

-2----2----2--------------------------
----3---3----3------------------------
--------------------------------------
--------------------------------------
--------------------------------------
--------------------------------------


D                                    Em
que encuentras de todo o nada a la vez.

3--0---3--0---3--0--------------------
--------------------------------------
--------------------------------------
--------------------------------------
--------------------------------------
--------------------------------------

Em                                       D
Que donde entran cinco tambien entran seis.

-2----2----2--------------------------
----3---3----3------------------------
--------------------------------------
--------------------------------------
--------------------------------------
--------------------------------------
D                                      Em
Y si al fondo hay sitio entra de una vez.

3--0---3--0---3--0--------------------
--------------------------------------
--------------------------------------
--------------------------------------
--------------------------------------
--------------------------------------


Coro:

Esto se pone bueno
-------0--2-------
0-0--0-----3------
-------------2----
------------------
------------------
------------------

           Em
Tu y yo adentro
--------0---------
3-3-1-3----0------
------------------
------------------
------------------
------------------

               D
A todos los invito
-------0--2-------
0-0--0-----3------
-------------2----
------------------
------------------
------------------

                     Em
Porque al fondo hay sitio
--------0---------
3-3-1-3----0------
------------------
------------------
------------------
------------------
(3) veces se repite
            D
Esto se pone bueno
-------0--2-------
0-0--0-----3------
-------------2----
------------------
------------------
------------------
             Em
Esto se pone caliente
------------0--------
3-3-3-1-1-3----0-----
---------------------
---------------------
---------------------
              D
A todos los invito
-------0--2-------
0-0--0-----3------
-------------2----
------------------
------------------
------------------
                    Em
Porque al fondo hay sitio
--------0---------
3-3-1-3----0------
------------------
------------------
------------------

Guitarra

1/----3-7-5-3---/---3-7-5-2---/--------------------0--     /--0---0-3---7--
2/--5---------5-/-5---------3-/--1-2-3-3-3-3-3-1-3--1-     /1---0----------
3/--------------/-------------/-2--------------------- (2x)/---------------
4/--------------/-------------/-----------------------     /---------------
5/--------------/-------------/-----------------------     /---------------
6/--------------/-------------/-----------------------     /---------------

                                                      Después---/

Trompeta pasada a guitarra:


1/--3---3---3---2-2----0--/
2/----5---5---------3-3---/
3/------------------------/
4/------------------------/(4x)
5/------------------------/
6/------------------------/


1/--0------0----------------/----------------0---0---/--0----------/
2/-----0-------4----0---4---/--3-0---3---2-----------/-------------/
3/--------------------------/------------------------/-------------/
4/--------------------------/------------------------/-------------/
5/--------------------------/------------------------/-------------/
6/--------------------------/------------------------/-------------/

Se repite todo y después esto:


1/--0------0----------------/-------------------0---0---/--0----/
2/-----0-------4----0---4---/--3----0---3---2-----------/-------/
3/--------------------------/---------------------------/-------/(2x)
4/--------------------------/---------------------------/-------/
5/--------------------------/---------------------------/-------/
6/--------------------------/---------------------------/-------/

Fin

hay algún problema escribanme a;:cris_30_1996@
Suggest correction
Give kudos to tab author, rate the tab!
1 2 3 4 5
comments
print report bad tab
guest
You may want to rate the tab now too:
select rating
Wanna post a correction for this tab? Suggest correction