Oops, an error
Loading. Please wait.

Carta A Una Amiga Chords

version 2
version 2

Whole song

7 views 1 this week
no commentswrite comment
1 2 3 4 5
3 more votes to show rating
add to favorites
launch autoscroll
font size
0
reset
transpose
0
reset
simplify chords
display chords
guitar tuner
Autoscroll
slow
fast
+/-
esc
set tempo
stop
Help us to improve Ultimate-Guitar.com Take our survey!
×
INTRO: G - D/F# - Em - C (Riff 1) G - D/F# - Em - C - D
G           D/F#
Cada nocha pasa
      Em     (C-0-1-2)C
Cada vez más lento y hoy,
G                 D/F#
Cuanto penas en silencio
         Em               C              G     D -D9 - D
Mientras tú piensas en alguien que no soy yo.

G                D/F#
Cuando estamos solos,
           Em         C
El mundo cambia de color,
       G           D/F#            Em
Y te miro a los ojos mientras me dices:
       C          G     D -D9 -D
Amigo mío, el mejor...

CORO
C          D
Quieras o no,
Bm/B      Em
Yo ya te amo,
   C              D           G     G7
Y no pienso arriesgar tu amistad.
C               D
El mismo de siempre
Bm/B                   Em
Que te apoya en tus derrotas,
C              D
Con el que platicas,
Bm/B                Em
Hasta de cosas muy locas.

C               D
Aquel que te llama 
Bm/B                  Em
Para ver si hacemos algo,
C             D
El que se suspira 
Bm/B                 Em
Si nos rozamos las manos.
C               D
El que nunca pensó...


INTERLUDIO: (Riff 2) Acompañamiento del Riff 2: G - D/F# - Em - C - G - D/F# - C

G                D/F#
Si al decir te quiero,
        Em         C
Pierdo amor y amistad,

    G                D/F#
Yo prefiero ser tu amigo,
               Em
Y que sea el tiempo
         C        G      D - D9 - D - D4 - D
El que diga la verdad.

CORO

         C        D     D4-D
El que nunca pensó,
              G       D/F#   Em    C
Enamorarse de ti...
G    D/F#    Em   C   (Riff 1)      
Uh-uh-uh-uh-uh-uh-uh...

FINAL: G

NOTAS:
       E A D G B E
Bm/B:  X 2 4 4 3 0
D9:    X X 0 2 3 3
D4:    X X 0 2 3 0

(C-0-1-2): 5a. CUERDA SE DESLIZA DEL 2o. AL 3er. TRASTE PARA LLEGAR A DO.


(Riff 1) INTRO:

                        G     D/F#      Em     C        G    D/F#     Em    C    D
E-------------------------------------------------------------------------------------
A-------------------------------------------------------------------------------------
D-------------------------------------------------------------------------------------
G-------------------------------------------------------------------------------------
B----8-8-8-----7-5-5--------------------------------------8---8---8-----7---5---5-----
e----7-7-7-----5-3-3--------------------------------------7---7---7-----5---3---3-----

(Riff 2)INTERLUDIO:
     G       D/F#     Em      C     G    D/F#   C
E-------------------------------------------------------------------------------------
A-------------------------------------------------------------------------------------
D-------------------------------------------------------------------------------------
G-------------------------------------------------------------------------------------
B---8-8-8-----7---5-5----------5-5-5-5-5-5-5-----7---5---5-5-----7-7---5-5------------
e---7-7-7-----5---3-3----------3-3-3-3-3-3-5-----7---5---3-5-----7-7---5-3------------

NOTAS: Esta rola esta en el directorio de Alejandro Filio como QUIERAS O NO , 
solo quiero decir al amigo que la registró ahí, esta mal, porque no es de Filio, 
sino de tonalli, o solo que todavía no la haya escuchado con él.

NOTA: ESTA CANCIÓN ESTA A DOS GUITARRAS, SI UNA HACE LOS REQUINTOS Y LAS OTRA ACOMPAÑA 
SE ESCUCHARÁ MEJOR...

¡ANIMO! QUE SE DIVIERTAN Y QUE DIOS LOS BENDIGA...

SU HERMANITO: SIL.
Suggest correction
Give kudos to tab author, rate the tab!
1 2 3 4 5
comments
print report bad tab
guest
You may want to rate the tab now too:
select rating
Wanna post a correction for this tab? Suggest correction