Oops, an error
Loading. Please wait.

Jaime Para Presidente Tab

55 views 3 this week
no commentswrite comment
1 2 3 4 5
3 more votes to show rating
add to favorites
launch autoscroll
font size
0
reset
how to read this tab
guitar tuner
Autoscroll
slow
fast
+/-
esc
set tempo
stop
Help us to improve Ultimate-Guitar.com Take our survey!
×
Bueno  la saque por que me parecio una cancion chvr! :D..
espero  que les guste.. y voten x Jaime ¡ XD :P..
En la parte donde canta tongo que parece trabalengua XD.!
 Lo llene presionando la segunda cuerda 4to traste rapido.
hasta que termine.

 Jaime Jaime Jaime Bayle   Jaime para presidente  pero
e---4h6--6-4-6-4-6-4------|--------------------------------
b------------------------|----555-3-2-3--------------------
g------------------------|------------2--------------------
d------------------------|---------------------------------
a------------------------|---------------------------------
E------------------------|---------------------------------

Jaime Jaime Jaime Bayle  Jaime para presidente  Jaime para presidente

e---6-4-6-4-6-4-6-4-----|-------------------------------------
b-----------------------|----555-3-2-3-------------555-3-2-3----
g-----------------------|------------2-------------------2------
d-----------------------|---------------------------------------
a-----------------------|---------------------------------------
E-----------------------|---------------------------------------

  Era un niño       muy diferente       a todos  los demas
e--------5--4------|---66--5-4--------|-----------1---3---5-
b-4--6------------|------------6------|---6---4-4-----------
g-----------------|-------------------|---------------------
d-----------------|-------------------|---------------------
a-----------------|-------------------|---------------------
E-----------------|-------------------|---------------------

 a pesar  que tenia todo       le gustaba la igualdad
e-----4-----66-4-----------|--------------4--5------------
b-4--6-----------6-4-------|---4-5-6--6-------------3----
g--------------------------|-------------------------------
d--------------------------|-------------------------------
a--------------------------|-------------------------------
E--------------------------|-------------------------------

  Ese niño        se hizo hombre     de justicia ni maldad
e-------5--4--|-----66--5-4-------|-------------1--3--5----
b-4-6---------|-------------6-----|----6---4-4------------
g-------------|-------------------|------------------------
d-------------|-------------------|------------------------
a-------------|-------------------|------------------------
E-------------|-------------------|------------------------

 inteligente y muy brillante   nos dara la solucion

e-----4-------66-4-----------|--------------4--5-----------
b-4--6-----------6-4---------|---4-5-6--6-------------3----
g----------------------------|-----------------------------
d----------------------------|-----------------------------
a----------------------------|-----------------------------
E----------------------------|-----------------------------

  Ambulante,comerciante??..   constructores del peruu

e--------------------------|------------------------------
b----4444444444444----6h8--|----66-4-3-4-3-------------
g--------------------------|-------------------------------
d--------------------------|-------------------------------
a--------------------------|-------------------------------
E--------------------------|-------------------------------


   te quiere el peru           te quiere el peru
e------------------------|-------------------------------
b--------55-3-2-3--------|---------55-3-2-3-------------
g------------------------|-----------------------------
d------------------------|-----------------------------
a------------------------|-----------------------------
E------------------------|-----------------------------

Pero Jaime Jaime Jaime Bayle      Jaime para presidente
e---4h6--6-4-6-4-6-4----------|----------------------------
b-----------------------------|----555-3-2-3---------------
g-----------------------------|------------2---------------
d-----------------------------|----------------------------
a-----------------------------|----------------------------
E-----------------------------|----------------------------

 Pero  Jai                        pero  jai
e-444----6--------------------|----444---6--------------
b-----------------------------|----------------------------
g-----------------------------|---------------------------
d-----------------------------|----------------------------
a-----------------------------|----------------------------
E-----------------------------|----------------------------

  Pero   jai jai jai jai jai jai jai    jaime pa presidente
e?-------44- -66666666666--------------|--------------------
b--------------------------------------|--555---3-2-3-------
g--------------------------------------|-----------2--------
d--------------------------------------|--------------------
a--------------------------------------|--------------------
E--------------------------------------|--------------------

admir
spero q les salga ! ^^ :D
Suggest correction
Give kudos to tab author, rate the tab!
1 2 3 4 5
comments
print report bad tab
guest
You may want to rate the tab now too:
select rating
Wanna post a correction for this tab? Suggest correction