Oops, an error
Loading. Please wait.

Unbreak My Heart bass

version 1
version 1

Whole song

Interactive

409 views 3 this week
no commentswrite comment
1 2 3 4 5
3 more votes to show rating
add to favorites
×
Save as Personal and add changes to this tab that will be seen only by you. Learn more ›
×
You can save this tab as Personal to edit and correct it or add notes. All changes will be seen only by you. Learn more »
launch autoscroll
font size
0
reset
guitar tuner
edit
Autoscroll
slow
fast
+/-
esc
set tempo
stop
Author
Difficulty
Unbreak My Heart
This release by Toni Braxton in 1996. Reached number 2 in UK 
And a massive number 1 in USA. Tab by bass50611. Welcome to my tab(s)
You have to listen to song for the beat on both parts. Neither are exact
But they do fit.  Comments at bass254@btinternet.com 

THERE ARE 2 PARTS TO THIS TAB ~ THIS IS PART 1 AS ORIGINALLY RECORDED

Intro:
(Chord)
G|----------------------------------------------------------------
D|-4--------------------------------------------------------------
A|--------2-----------------------------------------------------9-
E|-2--------------0-------5-------2-------2h3-----3-------2-------

Verse 1:
     Don’t leave me in a this pain, don’t leave me out in the rain
G|------------------------------------------------------------------
D|-------------------------------------------------7----------------
A|-9\2--------------------------------------------------------------
E|------------------0-----------------5-----------------------------

    Come back and bring back this smile, come and take these tears away
G|---------------------------------------------------------------------
D|---------------------------------------------------------------------
A|-9\2-----------------------------------------------------------------
E|----------------------0-------------------------5----------------2---

 I need your arms to hold me now, the nights are so unkind
G|----------------------------------------------------------
D|----------------------------------------------------------
A|-2--------------------------------------------------------
E|-------------------0-----------------5--------------------

   Bring back those nights when I held you besides me
G|---------------------------------------------------
D|---------------------------------------------------
A|-9\2-----------------------------------------------
E|------------------0----------------------5---------

Chorus 1:
  Un-Break my heart, say you’ll love me again...Un-do this hurt you caused
G|------------------------------------------------------------------------
D|-------------------5----------------------------------------------------
A|------------5-------------------------3------------------5--------------
E|-5--------------------------------------------5-------------------------

When you walked out of the door and walked out of my life...Un-cry these
G|----------------------------------------------------------------------
D|-------2--3---5-------------------------------------------------------
A|-----------------------------------------3----------------------------
E|----------------------------------------------------------5-----------

   Tears,  I’ve cried so many nights...Un-break my heart..my heart  (Chord)
G|-------------------------------------------------------------------------
D|--------2--3--5--------------------------------------------------------4-
A|-5--------------------------3--------0-----------1----1------0-----------
E|-----------------------------------------------------------------------2-

For Verse 2 Use same Format as Verse 1:

Chorus 2:
  Un-Break my heart, say you’ll love me again...Un-do this hurt you caused
G|------------------------------------------------------------------------
D|----------------2-3--5--------------------------------------------------
A|-0---2---4---5-------------------------3------------------5-------------
E|----------------------------------------------5-------------------------

When you walked out of the door and walked out of my life...Un-cry these
G|----------------------------------------------------------------------
D|-------2--3---5-------------------------------------------------------
A|-----------------------------------------3----------------------------
E|----------------------------------------------------------5-----------

   Tears,  I’ve cried so many nights...Un-break my heart...Ahhhhh..Hooooo
G|-------------------------------------------------------------------------
D|--------2--3--5----------------------------------------------------------
A|-5--------------------------3--------0-----------1----1----------6-------
E|-------------------------------------------------------------------------

Instrumental Interlude:
G|-----------------------------------------
D|-----------4-----------------------------
A|------4----------6----------4----9-----9-
E|-4--------------------4------------------

Verse 3:
  Don’t leave me in a this pain... don’t leave me out in the rain
G|----------------7---8---9-----12-13-14-------------------------
D|--------------------------------------14-----------------------
A|------------------------------------------12----12-13-15-14----
E|-7-------------------------------------------------------------

   Bring back those nights when I held you besides me
G|-------------------------------------------14------
D|-12-13-14------------------------------------------
A|---------------------------------------------------
E|---------------------------------------------------

Chorus 1:
  Un-Break my heart, say you’ll love me again...Un-do this hurt you caused
G|------------------------------------------------------------------------
D|---------------2-3-5----------------------------------------------------
A|-0---2---4--5-------------------------3------------------5--------------
E|---------------------------------------------5-------------------------

When you walked out of the door and walked out of my life...Un-cry these
G|----------------------------------------------------------------------
D|-------2--3---5-------------------------------------------------------
A|-----------------------------------------3----------------0---2---4---
E|----------------------------------------------------------------------

   Tears,  I’ve cried so many, many nights...Un-break my..Un-break my heart
G|-------------------------------------------------------------------------
D|--------2--3--5----------------------------------------------------------
A|-5--------------------------3---------------0---------5------------------
E|---------------------------------------------------------------------3---

Oh baby come back and say you love me...Un-break my heart sweet darling
G|----------------------------------------------------------------------
D|----------------------------------------------------------------------
A|------3-------------0---------------5---------------------------------
E|--------------------------------------------------3-------------------

 Without you I just can’t go on...(Backing Vocals To End)
G|-------------------------------------------------------
D|-------------------------------------------------------
A|-3---------------------0--2--4---5-------------------3-
E|----------------------------------------3--------------

Outro:                                         (Repeat To Fade/End)
G|------------------------------------------------------------
D|--------------2--3--5---------------------------2-3-5-------
A|-0--------5---------------3--------0--2--4--5-------------3-
E|------------------------------------------------------------

THIS IS PART 2

Unbreak My Heart (Dance Mix)
This is the Dance Mix Version taken from the UK CD. Needs to be played
With a Motown feel. Great version.
 
Intro:                                             (Play This x2)
G|---------------------------------------------------------------
D|--9--9-9--9-------9--9-9--9-------9--9-9--9-------9--9-9--9----
A|-----------9---------------9---------------9---------------9---
E|-7----------10---7----------10---7----------10---7----------10-

Verse:                          (Play This x5)
G|-----------------------------------------------
D|--9--9-9--9-------9--9-9--9-------9--9-9--9----
A|-----------9---------------9---------------9---
E|-7----------10---7----------10---7----------10-

Chorus 1:
G|------------------------------------------------------------------------
D|------------------------------------------------------------------------
A|----4-5--5-5--5-----------3--3-3--3---0-2-4-5--5-5--5---------3--3-3--3-
E|-5-7------------3--3-3--3----------------------------3--3-3—3-----------

G|-------------------------------------------------------------------
D|-------------------------------------------------------------------
A|-0-2-4-5--5-5--5-----------3--3-3--3---0-2-4-1--1-1--1---1--1-1--1-
E|-----------------3--3-3--3-----------------------------------------

G|-----------------------
D|-----------------------
A|-0--0-0--0---0--0-0--0-
E|-----------------------

Repeat Verse:

Chorus 2:
G|-------------------------------------------------------------------------
D|-------------------------------------------------------------------------
A|----4-5--5-5--5-----------3--3-3--3---0-2-4-5--5-5--5----------3--3-3--3-
E|-5-7------------3--3-3--3----------------------------3--3-3--3-----------

G|-----------------------------------------------------------------------
D|------------------7--5--5-5--5-----------------------------------------
A|-0-2-4-5--5--5-5-8-------------3--3-3--3---0-2-4-1--1-1--1---1--1-1--1-
E|-----------------------------------------------------------------------

G|-----------------------
D|-----------------------
A|-0--0-0--0---0--0-0--0-
E|-----------------------

Instrumental Interlude:                            (Play This x2)
G|---------------------------------------------------------------
D|--9--9-9--9-------9--9-9--9-------9--9-9--9-------9--9-9--9----
A|-----------9---------------9---------------9---------------9---
E|-7----------10---7----------10---7----------10---7----------10-

Verse 3:                                            (Play This x2)
G|---------------------------------------------------------------
D|--9--9-9--9-------9--9-9--9-------9--9-9--9-------9--9-9--9----
A|-----------9---------------9---------------9---------------9---
E|-7----------10---7----------10---7----------10---7----------10-

Chorus 3:
Sequence 1                          Sequence 2
G|--------------------------|     |-------------
D|----------------NO BASS---|     |---NO BASS---
A|----4-5--5-5-x------------|     |-------------
E|-5-7----------------------|     |-------------

Sequence 3
G|-----------------------------------------
D|------------------7--5--5-5--5-----------
A|-0-2-4-5--5--5-5-8-------------3--3-3--3-
E|-----------------------------------------

Sequence 4                                    Sequence 5
G|------------------------------------|   |-------------------------
D|------------------------------------|   |---------------NO BASS---
A|-0-2-4-5--5-5--5----------3--3-3--3-|   |-0-2-4-5--5-5------------
E|----------------3--3-3--3-----------|   |-------------------------

Bass Breaks For Several Bars ~ Vocals Only

Outro:
G|---------------------------------------------------------------------
D|---------------------------------------------------------------------
A|-5--5--5-5--5-5----------------3--3--3-3--3-3---0-2-4-5--5--5-5--5-5-
E|----------------3--3--3-3--3-3---------------------------------------
                                         .      .      .
G|-------------------------------------------------------
D|-------------------------------------------------------
A|----------------3--3--3-3--3-3---0-2-4-5-------------3-
E|-3--3--3-3--3-3-------------------------------3--------

Song Ends On Vocals Only:
Suggest correction
Creating personal tab
Creating personal tab
You can edit any tab online and save it as your Personal.

You can edit, replace or remove any tab part or add personal notes – all changes will be seen only by you.

Personal tabs can be accessed anytime from any device, even offline.
Learn more »
Give kudos to tab author, rate the tab!
1 2 3 4 5
comments
print report bad tab
guest
You may want to rate the tab now too:
select rating
Wanna post a correction for this tab? Suggest correction