Oops, an error
Loading. Please wait.

Casual Affair bass

by Tonic
238 views 9 this week
no commentswrite comment
1 2 3 4 5
2 more votes to show rating
add to favorites
×
Save as Personal and add changes to this tab that will be seen only by you. Learn more ›
×
You can save this tab as Personal to edit and correct it or add notes. All changes will be seen only by you. Learn more »
launch autoscroll
font size
0
reset
guitar tuner
edit
Autoscroll
slow
fast
+/-
esc
set tempo
stop
Artist:   Tonic
Song:     Casual Affair
Tuning:   Bass Drop-D
Tabbed by: jjhand


Intro Riff
G|---------------------------------|-------------------------------|
D|---------------------------------|-------------------------------|
A|---------------------------------|-------------------------------|
D|-7-4-4-7-4-4-7-4-4-7-4-4-7-4-4---|-7-4-4-7-4-4-7-4-4-6---6-7-6---|


Verse Riff - 

play this line 2x:
G|--------------------|-----------------|-----------------|------------------|
D|---------------2-/6-|-4-----------2---|-----------------|-----2------2-----|
A|-----------2-4------|--------4-/4---0-|-5---------------|-------/4-4---/4\-|
D|-2/4---x------------|-----------------|-------0---2-4---|-2----------------|

play the next 2 lines once each before chorus:
G|--------------------|-----------------|-----------------|--------------------|
D|---------------2-/6-|-4-----------2---|-----------------|-----2------2-------|
A|-----------2-4------|--------4-/4---0-|-5---5-----------|-------/4-4---4\2-0-|
D|-2/4---x------------|-----------------|-------0---2-4---|-2------------------|

G|--------------------|-----------------|-----------------|------------------|
D|---------------2-/6-|-4---------------|-----------------|-----2------------|
A|-----------2-4------|--------0----2-4-|-5---0-----------|------------------|
D|-2/4---x------------|-----------------|-------0---2-4---|-2-------2--------|


Chorus
G|--------------|--------------|-----------------|--------------|
D|--------------|--------------|-----------------|--------------|
A|--------------|-0--------0-1-|-2--------2-4-4~-|--------------|
D|-0--------4-6-|--------------|-----------------|-4---------4\-|

G|--------------|--------------|-----------------|--------------|
D|--------------|--------------|-----------------|--------------|
A|--------------|-0--------0-1-|-2--------2-4-4~-|--------------|
D|-0--------4-6-|--------------|-----------------|-4------------|


Verse Riff 2 - 
G|--------------------|-----------------|-----------------|-----------------|
D|---------------2-/6-|-4-----6-7-6-----|-----------------|-------2-------2-|
A|-----------2-4------|-------------4-7-|-5---------------|----------/4-4---|
D|-2/4---x------------|-----------------|-------0---2-4---|-2---------------|

G|--------------------|-----------------|-----------------|------------------|
D|---------------2-/6-|-4-----------2---|-----------------|-----2------2-----|
A|-----------2-4------|--------4-/4---0-|-5---------------|-------/4-4---/4\-|
D|-2/4---x------------|-----------------|-------0---2-4---|-2----------------|

G|--------------------|-----------------|----------------|---------------------|
D|---------------2-/6-|-4-----------2---|----------------|-----2--6/7\6--------|
A|-----------2-4------|--------4-/4---0-|-5---5----------|--------------7-/4-7-|
D|-2/4---x------------|-----------------|-------0---2-4--|-2-------------------|

G|--------------------|-----------------|-----------------|------------------|
D|---------------2-/6-|-4---------------|-----------------|-----2------------|
A|-----------2-4------|--------0----2-4-|-5---0-----------|------------------|
D|-2/4---x------------|-----------------|-------0---2-4---|-2-------2--------|



Play Chorus Riff Again


Solo - Play Intro Riff


Play Chorus Again 2x


Ending - Play Intro Riff 4x



************************************
Key
| /   slide up
| \   slide down
| h   hammer-on
| p   pull-off
| ~   vibrato
| +   harmonic
| x   Mute note
| b   Bend

************************************************************************
Suggest correction
Creating personal tab
Creating personal tab
You can edit any tab online and save it as your Personal.

You can edit, replace or remove any tab part or add personal notes – all changes will be seen only by you.

Personal tabs can be accessed anytime from any device, even offline.
Learn more »
Give kudos to tab author, rate the tab!
1 2 3 4 5
comments
print report bad tab
guest
You may want to rate the tab now too:
select rating
Wanna post a correction for this tab? Suggest correction