Oops, an error
Loading. Please wait.

Mean To Me bass

version 1
version 1

Whole song

Interactive

by Tonic
46 views 1 this week
no commentswrite comment
1 2 3 4 5
2 more votes to show rating
add to favorites
×
Save as Personal and add changes to this tab that will be seen only by you. Learn more ›
×
You can save this tab as Personal to edit and correct it or add notes. All changes will be seen only by you. Learn more »
launch autoscroll
font size
0
reset
guitar tuner
edit
Autoscroll
slow
fast
+/-
esc
set tempo
stop
Author
Difficulty
Artist: Tonic
Song:   Mean to Me
Tuning: Standard Bass
Tabbed by: jjhand



Bass starts in at 0:26
G|-----------------|---------------|---------------|----------------|
D|-----------------|---------------|---------------|----------------|
A|-----------------|-4-------------|---------------|----------------|
E|-6-------4-------|---------------|-6-------------|-2--------------|

G|--------------|---------------|--------------|--------------------|
D|--------------|---------------|--------------|------------------1-|
A|--------------|---------------|--------------|-------------1-3-4--|
E|-2------------|-6-------------|-4------------|-2------1-2-4-------|



Chorus
G|------------------|--------------------|------------------|
D|------------------|--------------------|------------------|
A|-4-------4--4-----|-1------------------|-4-------4--4-----|
E|------------------|----------2-2---2---|------------------|

G|----------------------|------------------|-----------------|
D|--------------------1-|------------------|-----------------|
A|-1-------------1-3-4--|-4-------4--4-----|-1---------------|
E|----------1-2-4-------|------------------|---------2-------|

G|------------------|------------------|
D|------------------|------------------|
A|-4-------4--4-----|------------------|
E|------------------|-6------4---------|



Verse 2:
G|----------------|--------------------|------------------|----------------|
D|----------------|--------------------|------------------|---------4------|
A|----------------|------11h13-11--6h8-|------------------|-------4-----4--|
E|-6-------4-----4/9----9--------------|-6----6-6---4-0-1-|-2--------------|

G|--------------|-------------------|--------------|--------------------|
D|--------------|-------------------|--------------|------------------1-|
A|--------------|-----------5--6--8-|----------6h8-|-------------1-3-4--|
E|-2-----2----4-|-6------6----------|-4-----4------|-2------1-2-4-------|


Play Chorus Again


Chorus 2 Ending :
                      2 beats  4 beats
G|------------------|--------|--------------|-----------------------|
D|------------------|--------|-6----6---6h8-|-4-------------------1-|
A|-4-------4--4-----|--------|--------6-----|----------------1-3-4--|
E|------------------|-6------|--------------|-----------1-2-4-------|
"Why you gotta be so mean to me          yeah yeah"




Solo - Play Chorus Riff Again


Last Verse - 3:00

G|---------------|-----------------|-----------------|------------------------|
D|---------------|-8---------10h11-|-6---------8--10-|-4--------------------1-|
A|-4/9-----------|-----------------|-----------------|-----------------1-3-4--|
E|---------------|-----------------|-----------------|------------1-2-4-------|



Play Chorus riff similarly 2x to end song


************************************

| /   slide up
| \   slide down
| h   hammer-on
| p   pull-off
| ~   vibrato
| +   harmonic
| x   Mute note
| b   Bend
| br  Bend release

************************************************************************

            
            
Suggest correction
Creating personal tab
Creating personal tab
You can edit any tab online and save it as your Personal.

You can edit, replace or remove any tab part or add personal notes – all changes will be seen only by you.

Personal tabs can be accessed anytime from any device, even offline.
Learn more »
Give kudos to tab author, rate the tab!
1 2 3 4 5
comments
print report bad tab
guest
You may want to rate the tab now too:
select rating
Wanna post a correction for this tab? Suggest correction