Oops, an error
Loading. Please wait.

My Old Man Bass

by Tonic
617 views 3 this week
no commentswrite comment
1 2 3 4 5
2 more votes to show rating
add to favorites
×
Save as Personal and add changes to this tab that will be seen only by you. Learn more ›
×
You can save this tab as Personal to edit and correct it or add notes. All changes will be seen only by you. Learn more »
save as personal
new!
launch autoscroll
font size
0
reset
guitar tuner
Autoscroll
slow
fast
+/-
esc
set tempo
stop
Author
Chorus #1

G:|---------------------------------------------------------------|
D:|-----666----------------------666------------------------------|
A:|------------------4-4-4-4-------------------4------------------|
E:|-4-4-----4-4--467----------4-4-----4-4--467--------------------|

"It's all part of the plan..."

G:|---------------------------------------------------------------|
D:|---6h8b--6-----------------------------------------------------|
A:|------------4--------------------------------------------------|
E:|-4-------------------------------------------------------------|

Verse

G:|---------------------------------------------------------------|
D:|---------------------------------------------------------------|
A:|--4--------4---------------------------------------------------| x8
E:|----2---4h6----------------------------------------------------|

Go directly into this chorus #2 with ...

G:|----------------------------66-64------------------------------|
D:|--6456------666------------------6-456-------------------------|
A:|-------------------------4--------4----------------------------|
E:|--------4-4-----4-4--467-----------------4-4-4-4---------------|

Bridge

G:|---------------------------------------------------------------|
D:|---------5-(5)/8-8--8h10/11/10-8-------5-(5)/8--68--6----------|
A:|----------------------------------------------68--68-8---------|
E:|-6-6-(6)---------------------------6-6-------------------------|

G:|---------------------------------------------------------------|
D:|-----5-(5)/8-8h10/11/10--6-------------------------------------|
A:|----------------------------4-44-------------------------------|
E:|-6-6-----------------------------------------------------------|

This is the first "solo", it's more just like a musical intermission

G:|---------------------------------------------------------------|
D:|-------------------------6-456-456-46--------------------------|
A:|---------4------------4------------------------4---------------|
E:|-4/2--4h6-----4/2--4h6-----------------4/2--4h6----------------|

Back to Chorus # 2

G:|----------------------66-64------------------------------------|
D:|------666------------------6-456-------------------------------|
A:|-------------------4--------4--------------4-------------------|
E:|--4-4-----4-4--467-----------------4-4-4-4---------------------|

Then back to..."It's all part of the plan..."

G:|---------------------------------------------------------------|
D:|---6h8b--6-----------------------------------------------------|
A:|------------4--------------------------------------------------|
E:|-4-------------------------------------------------------------|

Rest here while the guitar plays by itself

This is the second "solo" and outro

G:|-------------------------466-466-46----------------------------|
D:|---------------------------------------------------------------|
A:|---------4------------4----------------------4-----------------|
E:|-4/2--4h6-----4/2--4h6---------------4/2--4h6------------------|

()= let ring
 h= hammer 
 /= slide
 b= bend


This is pretty much correct, maybe a couple mistakes but for 99% of it it's
accurate.  Comments to manof3200@msn.com
Suggest correction
Give kudos to tab author, rate the tab!
1 2 3 4 5
comments
print report bad tab
guest
You may want to rate the tab now too:
select rating
Wanna post a correction for this tab? Suggest correction