Oops, an error
Loading. Please wait.

Sugar album tab

version 1
version 1

Album

Whole song

by Tonic
1,391 views 3 this week
1 commentread comment
1 2 3 4 5
2 more votes to show rating
add to favorites
×
Save as Personal and add changes to this tab that will be seen only by you. Learn more ›
×
You can save this tab as Personal to edit and correct it or add notes. All changes will be seen only by you. Learn more »
launch autoscroll
font size
0
reset
how to read this tab
guitar tuner
edit
Autoscroll
slow
fast
+/-
esc
set tempo
stop
Author
Difficulty
TONIC - "SUGAR" album tab

1. Future Says Run
2. You Wanted More
3. Knock Down Walls
4. Mean To Me
5. Sugar
6. Stronger Than Mine
7. Queen
8. Waiting for the Light to Change
9. Waltz With Me
10. Sunflower
11. Drag Me Down
12. Top Falls Down
13. Love a Diamond


================================================
================================================
Song: "Future Says Run" by Tonic 
Tabbed By jjhand 
Open G tuning (DGDGBD), capo II, everything relative to capo
Guitar 1: Acoustic
Guitar 2: Electric w/ distortion
Guitar 3: Clean Electric
================================================
================================================
Thanks to Jurgen Krombeen (valkenaer@hotmail.com) for help on the intro.


Intro - Acoustic
       A   Amaj7                                
E  |-0--0--0--0-0-0-----0-0---|-0--0--0--0-0-0-----0-0---|
C# |-0--0--0--0-----0---------|-0--0--0--0-----0---------|
A  |-6--7--7--6-----6h7-------|-6--7--7--6-----6h7-------| 
E  |----------------0---------|----------------0---------| 
A  |------------------------0-|------------------------0-|
E  |--------------------------|--------------------------|
     *     *        *   *       *     *    *       * 


Verse riff (play all 4 bars 3x):  
Both Acoustic and Distorted Electric
E  |-0--0--0--0-0-0-----0-0---|-0--0--0--0-0-0-----0-0---|
C# |-0--0--0--0-----0---------|-0--0--0--0-----0---------|
A  |-6--7--7--6-----6h7-------|-6--7--7--6-----6h7-------| splits 
E  |----------------0---------|----------------0---------| to 2 parts
A  |------------------------0-|------------------------0-|
E  |--------------------------|--------------------------|

   Guitar 1
    C#sus2
e |---------x--x-------x--|---------x--x-------------||
C#|---------x--x-------x--|---------x--x-------------||
A |-6---6---x--x-6-----x--|-6---6---x--x-6----6--0-0-||
E |-4---4---x--x-4-----x--|-4---4---x--x-4----4------||
A |-4---4---x--x-4-----x--|-4---4---x--x-4----4------||
E |-----------------------|--------------------------||
  |
  | Guitar 2 (Dist Electric)
e |-0---0---x--0-0----0---|-0---0---x--0-0----0------||
C#|-3/5-5---x--5-5/7--7---|-3/5-5---x--5-5/7--7\-----||
A |-2/4-4------4-4/6--6---|-2/4-4------4-4/6--6\-----||
E |-----------------------|--------------------------||
A |-----------------------|--------------------------||
E |-----------------------|--------------------------||

Play verse 3x with these lyrics:
 
01 Holding lightly words that make you aware
02 Your head's spinning, no one knows you're not there 
03 Blankly staring, strangers call you friend


Prechorus:
Guitar 1
    C#sus2              Bsus2                A               D                 
e |---------x-------------|-0----0---0-00--0-|-0-----0-------|--0-0-0----0---|
C#|---------x-------------|-0----0---0-00--0-|-0-----0-------|--0-0-0----0---|
A |-6---6---x--6-6------4-|-4----4---4-44--4-|-0-----0-------|--0-0-0----0---|
E |-4---4---x--4-4------2-|-2----2---2-22--2-|-0-------------|---------------|
A |-4---4---x--4-4------2-|-2----2---2-22--2-|-0-------------|---------------|
E |-----------------------|------------------|---------------|---------------|
  |       "The power you own is a power that mends"
  |
  |Guitar 2
e |---------x-------------|------------------|---------------|---------------|
C#|---------x-------------|------------------|---------------|-0h1----0------|
A |-6---6---x--6-6------4-|-4----------------|-0-------------|-0------0------|
E |-4---4---x--4-4------2-|-2----------------|-0-------------|-0h2----0------|
A |-4---4---x--4-4------2-|-2----------------|-0-------------|-0------0------|
E |-----------------------|------------------|---------------|---------------|




Chorus -
    Guitar 3
e |-----7-----------|-----7-----------|----------------|-------------|
C#|---7-----8---7---|---7-----8--7-8--|-----6b7r6---4--|-2-----------|
A |-7-------------7-|-7---------------|----------------|-------------|
E |-----------------|-----------------|----------------|-------------|
A |-----------------|-----------------|----------------|-------------|
E |-----------------|-----------------|----------------|-------------|
  |
  | Guitar 2
e |-----------------|-----------------|----------------|-0-----------|
C#|-----3-----------|-3---3---3--3-3--|----------------|-0-----------|
A |-----2-----------|-4---2---0--0-0--|-6--------------|-4-----------|
E |-----0-----------|-0---0---0--4-0--|-4--------------|-2-----------|
A |-2---------------|-----------------|-4--------------|-2-----------|
E |-0---------------|(0)--------------|-4--------------|-2-----------|
    "You can't go on, no you can't even talk"

    Guitar 3
e |-----7-----------|-7---------------|----------------|-------------|
C#|---7-----8---7---|-----8-7-8---7---|-----6b7r6---4--|-2-----------|
A |-7-------------7-|---------------7-|----------------|-------------|
E |-----------------|-----------------|----------------|-------------|
A |-----------------|-----------------|----------------|-------------|
E |-----------------|-----------------|----------------|-------------|
  |
  | Guitar 2
e |-----------------|-----------------|----------------|-0-----------|
C#|-----3-----------|-3---3---3--3-3--|----------------|-0-----------|
A |-----2-----------|-4---2---0--0-0--|-6--------------|-4-----------|
E |-----0-----------|-0---0---0--4-0--|-4--------------|-2-----------|
A |-2---------------|-----------------|-4--------------|-2-----------|
E |-0---------------|(0)--------------|-4--------------|-2-----------|
    "Your future says run, but you can't even walk"



Play Verse again 

Play Chorus again



Solo (Guitar 3 with Distortion) - The Verse riff is played behind this

e |-----------------|--------5b7r5--4-|-4h5p4-2-4~------2h4p2p0-|
C#|-2--3---5b7r5--3-|-2--3------------|-------------------------|
A |-----------------|-----------------|-------------------------|
E |-----------------|-----------------|-------------------------|
A |-----------------|-----------------|-------------------------|
E |-----------------|-----------------|-------------------------|

e |-0h2--2p0-0---0h2p0--2-2/4~---|-----------------|--------5b7r5--4-|
C#|---------2---------2----------|-2-3---b6r5--3---|-2-3-------------|
A |------------------------------|-----------------|-----------------|
E |------------------------------|-----------------|-----------------|
A |------------------------------|-----------------|-----------------|
E |------------------------------|-----------------|-----------------|


e |-4h5p4p2-4~-----2h4p2p0---------|------------------------------|
C#|------------------------3h5p3p2-|-2h3p2p0--0h2p0---------------|
A |--------------------------------|---------------2--0h2-0h2-4~--|
E |--------------------------------|------------------------------|
A |--------------------------------|------------------------------|
E |--------------------------------|------------------------------|

e |-----------------|-----------------|---------------------|----------------------|
C#|-----------------|---------5b7-----|-(b7)--------5b7-5-3-|-5~---------2h3---2-2-|
A |-6-7-------------|-6-7-------------|---------------------|---------2h4----2-----|
E |---------7b9-----|-----------------|---------------------|----------------------|
A |-----------------|-----------------|---------------------|----------------------|
E |-----------------|-----------------|---------------------|----------------------|

e |----------------------------|
C#|-2-3p2p0--------------------|
A |----------------------------|
E |----------------------------|
A |----------------------------|
E |----------------------------|


Play Chorus to finish song and hold the last Chord:
e |----------------------|
C#|----------------------|
A |-4--------------------|
E |-2--------------------|
A |-2--------------------|
E |-2--------------------|


  Quiet acoustic in background plays ending:

e |-0-----0-0------0-0---------|-0---0-0--0-0-0---0-0--0-0--|
C#|-2-----2-2h3----2-2h3p2p0---|-0---0-0--0-0-0---0-0--0-0--|
A |-0---0-0-0----0-0-0---------|-2-----2------0-----0-------|
E |-0--------------------------|-0-----0------0-----0-------|
A |-0--------------------------|-0-----0------0-----0-------|
E |----------------------------|----------------------------|






==================================================
==================================================
Tonic - You Wanted More
Tuning: Double Drop-D (DADGBD), capo second fret
tabbed by jjhand
==================================================
==================================================         

   Intro - play 2x
  e|-------------------------|-----------------------------|
 C#|-------------------------|-----------------------------|
  A|-------------------------|-----------------------------|                 
  E|-------------------------|-----------------------------|
  B|---------5-----5---7-----|---------5-----5---7-5-----7-|
  E|---0-5-7---7p0-5---7-----|---0-5-7---7p0-5---7-5-----7-|



Verse - play this 2x (including intro riff bars)

     V
  e|-0------0-----0--|-----------0-----0--|
 C#|-1---------1-----|--1-----------1-----|
  A|-2---------------|-(2)----------------|  play Intro again 1x
  E|-2---------------|-(2)----------------|
  B|-0---------------|-(0)----------------|
  E|-----------------|--------------------|
   
    "Love Is Tragic Love Is Bold You Will ALways Do What You Are Told 
     Love Is Hard Love Is Strong You Will Never Say That You Were Wrong"



Prechorus:
  e|-0----0-----0--|-0-----0-----0--|---------------------|----------------------|
 C#|-1-------1-----|-0--0-----0-----|---------------------|----------------------|
  A|-2-------------|-0--------------|---------------------|----------------------|
  E|-2-------------|----------------|---------------------|----------------------|
  B|-0-------------|----------------|--------3-----3-5----|--------3-----3-5-3-5-|
  E|---------------|----------------|--0-3-5---5p0-3-5----|--0-3-5---5p0-3-5-3-5-|

   "I Don't Know When I Got Bitter
    but Love Is Surely Better When It's Gone"


Chorus - play both parts 2x
  
  Chords strummed by rhythm guitar:
      Dadd9       A          Gadd6      Bm    A/E 
  e|--0--------|--0-------|--0--------|-------0----|
 C#|--1--------|--0-------|--1--------|-1-----0----|
  A|--0--------|--0-------|--0--------|-2-----0----|  
  E|--2--------|--5-------|--3--------|-2-----0----|
  B|--3--------|--5-------|--3--------|-0----------|
  E|-----------|--5-------|--3--------|------------|
   |
   | Lead (some ad-lib may occur):
  e|---5-0-5---5-0-5-|---5-0-5---5-0-5-|-----5---0-5-----|---0------------5-|
 C#|-----------------|-----------------|-----------------|-----5-----0-0-0--|
  A|-5-------5-------|-4-------4-------|---5---5-----5---|-5-------0--------|
  E|-----------------|-----------------|-7-------------7-|------------------|
  B|-----------------|-----------------|-----------------|------------------|
  E|-----------------|-----------------|-----------------|------------------|


   "Cause You Wanted More More Than I could Give More than I could handle 
   In a life that I can't live" 
   "You wanted more More than I could bear More than I could offer For a love that
   isn't there"


Play Verse again with these words:

  "Love is color, Love is loud, Love is never saying that you're too proud"
  "Love is trusting, Love is honest, Love is not a hand to hold you down"
  "I don't know when I got bitter, but love is surely better when it's gone"



Play Chorus again



BreaK:
     Lead, play 3x
   e|-------0-----------0-------|-------------------------|
  C#|---0h1---1p0---0h1---1p0---|-------------------------|
   A|-------------0-----------0-|-(0)---------------------|
   E|---------------------------|-------------------------|
   B|---------------------------|-------------------------|
   E|---------------------------|-------------------------|
    |
    |Acoustic Rhythm chords (strum to recorded rhythm)
   e|-0-------------------------|--0------------|
  C#|-1-------------------------|--0------------|
   A|-0-------------------------|--0------------|
   E|-3-------------------/7----|--5------------|
   B|-3-------------------/7----|--5------------|
   E|-3-------------------/7----|--5------------|

   "I got to pick me up when I am down" 
   "I got to get my feet back on the ground"
   "I got to pick me up when I am down" 


For Break ending, Both guitars strum:
  e|-0--------------|------------------|
 C#|-3--------------|------------------|
  A|-0--------------|-0----------------|
  E|-4--------------|-5----------------|
  B|-5--------------|-3----------------|
  E|-0--------------|-3----------------|


Solo: Starts on end of last beat of previous measure
  e-----|--------------------------|------------------------|
 C#-----|-10------8-----5----------|-5-----6-----3----------|
  A-0-0-|----0-0----0-0--------0-0-|---0-0---0-0--------0-0-|
  E-----|-10-----10-----5----------|-5-----5-----5----------|
  B-----|--------------------------|------------------------|
  E-----|--------------------------|------------------------|


  e|----------------------|-0-0-0-0---------------|
 C#|-3-----5-----1--------|-3-3-3-3-3\1-----1---0-|
  A|---0-0---0-0----------|-----------0---0---0---|
  E|-5-----7-----3--------|-----------------------|
  B|----------------------|-----------------------|
  E|----------------------|-----------------------|

  e|--------------------------|------------------------|---------------------|
 C#|-10------8----------------|-5-----6-----3----------|-1---5p3p1-------1---|
  A|----0-0----0-0--------0-0-|---0-0---0-0--------0-0-|-0---0-------0h2-----|
  E|-10-----10-----10---------|-5-----5-----5----------|---------------------|
  B|---------------7----------|------------------------|---------------------|
  E|--------------------------|------------------------|---------------------|

   During solo, rhythm plays the Chorus chords


Play Prechorus

Play Chorus 2x

Play Intro to end song




==========================================
==========================================
Tonic - "Knock Down Walls"
From "Sugar" album
standard tuning, 2 electrics
tabbed by jjhand
==========================================
==========================================

Intro/Chorus Riff - play 2x

   Rhythm
e|-----2----------|-----5----------|----------------|------------------|
B|-----2----------|-----5----------|-----7----------|---------7--------|
G|-----2------7---|-----6----------|-7---7------7---|-9---9------------|
D|-4---4------7---|-7---7------4---|-7---7------7---|-9---9------------|
A|-4---4------5---|-7---7------4---|-5---5------5---|-7---7------------|
E|-2---2----------|-5---5------2---|----------------|------------------|
 | F#m        D     A          F#5   D                Eadd2  
 |
 | Lead, with slide
e|----------------|----------------|----------------|------------------|
B|-------14~~~\---|-------14~~~\---|-------14~~\--7-|-7/9~~~-----------|
G|-13/14___~~~\---|-13/14___~~~\---|-13/14___~~\--7-|-7/9~~~-----------|
D|----------------|----------------|----------------|------------------|
A|----------------|----------------|----------------|------------------|
E|----------------|----------------|----------------|------------------|



Verse Riff - Rhythm  (pm notes with *)
e|-------------------------|------------------------|
B|-------------------------|------------------------|
G|------------------7------|------------------------|
D|-4--4--4--4--4----7---7--|-7--7--7--7--7--2--2/4--|
A|-4--4--4--4--4----5---7--|-7--7--7--7--7--2--2/4--|
E|-2--2--2--2--2--------5--|-5--5--5--5--5--0--0-2--|
 | *  *  *  *  *             *  *  *  *  *  
 |
 | Lead (rhythm may change as noted below)
e|-2--2--2--2--2--2--2--2--|-5--5--5--5--5--4--4--2--|
B|-2--2--2--2--2--3--3--3--|-5--5--5--5--5--5--5--2--|
G|-2--2--2--2--2--2--2--2--|-6--6--6--6--6--4--4--2--|
D|-------------------------|-------------------------|
A|-------------------------|-------------------------|
E|-------------------------|-------------------------|




Lead plays these licks mixed in with the Verse Riff 

  (0:18)               (0:25)                (0:31)               (0:39)
e|---------------|     |---------------|    |---------------|    |---------2--|
B|---------------|     |---------------|    |---------------|    |------------|
G|---1h2-1h2-----|     |-4b5r4b5-/6~---|    |---1h2-1h2-----|    |-4b6r4b6----|
D|-2---------2/4-|     |---------------|    |-2---------2/4-|    |------------|
A|---------------|     |---------------|    |---------------|    |------------|
E|---------------|     |---------------|    |---------------|    |------------|

play the first lick (0:18) again before the prechorus


Lyrics:
1 "You killed me when you came walking down the sidewalk Saying everything was fine"
2 "Dressed up like a wife of a life Ill never have its so easy to fool me"
3 "You can turn me on, You can turn me off"
4 "Ive had enough of that little boy sandbox stuff"




Prechorus:

   Both Guitars, Lead plays () notes and doubles rhythm otherwise
 
e|---------------|--------(5)------|-------------------|------------------|
B|---------------|----------(5b7r5)|(5b7)--------------|------------------|
G|-7---7---------|-2---2-----------|-----7---7---------|-1---1---1h2--2-2-|
D|-7---7---------|-4---4-----------|-----7---7---------|-2---2---2----2-2-|
A|-5---5---------|-4---4-----------|-----5---5---------|-2---2---2----2-2-|
E|-------------0-|-2---2-----------|-------------------|-0---0---0----0-0-|
 "Love you wanted to try       For a life your willing to buy"



Chorus - Intro Riff

"I ...  Knock down walls for you. Cause I need you"


Pre-Verse Lick (1:06) - 3rd Clean Guitar
e|---5-----4-----|-----------------|
B|---------------|-5-----5---7-5---|
G|-6---6-----6---|---6-------------|
D|---------------|-----------------| play 2x
A|---------------|-----------------|
E|---------------|-----------------|


Verse 2: 
Lyrics 
"You always grab ahold of the ones you know you can change"
"Just a group of loner zeros who will play your game"
"Something tells them that their luck is gonna change,
Round and round you drag them down"
"So dont tell me Ive gone crazy, Youre the one whos trying to fuckin change me"




Play Chorus again (1:39)




Mandolin Solo, played 5x similarly:
e|-14--------------------------------------|-12-----12-----12-----------12-----------|
B|-----------------12----------------------|---------------------15-12---------------|
G|-----13-14--13-13-----14-13-13--14-13-13-|---13-14-----14--14-------14----14-11-13-|
D|-----------------------------------------|-----------------------------------------|
A|-----------------------------------------|-----------------------------------------|
E|-----------------------------------------|-----------------------------------------|
 |
 | Rhythm Guitar
e|-----------------------------------------|-----------------------------------------|
B|------------2--------------------2-------|-------------2-------------------2-------|
G|------------2--------------------2-------|-------------2-------------------2-------|
D|-----------------------------------------|---------------------0-----0-------------|
A|-----------------------------------------|-0------0--------------------------------|
E|-2----2---------------4------4-----------|-----------------------------------------|
   F#m                  A/G#                 A                   Dmaj7




Solo (rhythm plays Intro/Chorus Riff)
e|------------------|-----------------|-------------|------------------|
B|---4b6r4p2--4p2---|-2---------------|-------------|-------2-2~-------|
G|---4b6r4p2--4p2---|-2---------------|-------------|-------2-2~-------|
D|----------------4-|------4---2h4~---|---2h4-2-----|-2-3-4--------4---|
A|------------------|--------4--------|-------------|------------------|
E|------------------|-----------------|---------5-2-|------------------|

e|-----------------------|--------------------|------------------|--------------------|
B|-16b18r16p14-16p14--14-|-(14)---------------|------------------|--------------------|
G|-16b18r16p14-16p14--14-|-(14)---------------|---14-----14------|------------14------|
D|------------------16---|-----16---0-14h16~--|---14h16--14------|-14-15-16~--14-16~--|
A|-----------------------|--------------------|--------------16--|--------------------|
E|-----------------------|--------------------|------------------|--------------------|



  (2:51) Prechorus begins here, but solo continues:
e|-----------------------|-----------------------|------------|
B|-14--------------------|-(14)------------------|------------|
G|-14--------------------|-(14)--14--------------|------------|
D|-----------------------|---------16p14-16-16---|-(16)-------|
A|-----------------------|-----------------------|------------|
E|-----------------------|-----------------------|------------|
  "Life you wanted to try               For a love youre willing to buy"




Play Chorus Again and repeat to end song






===========================================
===========================================
Tonic - "Mean To Me"
Tuning - Standard, Capo First Fret 
tabbed by jjhand for 2 Electrics
===========================================
===========================================


Intro/Verse - play 2x, with Light Chorus effect
      F|-0------0-0--3------3--0-|-0----0--0-0---0---0-0-|
      C|-1------1-0--3------3--0-|-1----1--1-1---1---1-1-|
     Ab|-2------2-0--0------0--0-|-0----0--0-0---0---0-0-|
     Eb|-2------2-0--0------0--0-|-2----2--2-2---0h2-2-2-|
     Bb|-0------0-0--2------2--0-|-3----3--3-3---3---3-3-|
      F|-------------3------3----|-----------------------|
"There's an empty place inside that is hurting me"

|-0--------0-0-0-------0---0---|-0----0--0-0---0---0-0-|
|-1--------1-1-1-------1---0h1-|-1----1--1-1---1---1-1-|
|-2--------2-2-2-------2---0h2-|-2----2--2-2---2---2-2-|
|-2--------2-2-2-------2-------|-3----3--3-3---3---3-3-|
|-0--------0-0-0-------0-------|-3----3--3-3---3---3-3-|
|------------------------------|-1----1--1-1---1---1-1-|
"A place that keeps my heart out on it's own"

|-0----0--0-0---0---0-0-|-0----0--0----0---0-0-|
|-1----1--1-1---1---0-0-|-1----1--1----1---0-0-|
|-2----2--2-2---2---0-0-|-2----2--2----2---0-0-|
|-3----3--3-3---3---0-0-|-2----2--2----2---0-0-|
|-3----3--3-3---3---0-0-|-0----0--0----0---0-0-|
|-1----1--1-1---1-------|----------------------|
"A disconnected function of my wretchedness, that keeps"

                         Ending 1              Ending 2
|-3---3---3---3-3---3-3-|-3-------------|      -0----0--0-0---|
|-0---0---0---0-0---1-1-|-0-------------|      -1----1--1-1---|
|-0---0---0---0-0---0-0-|-0-------------|      -2----2--2-2---|
|-0---0---0---0-0---0-0-|-0-------------|      -3----3--3-3---| 
|-2---2---2---2-2-------|-2-------------|      -3----3--3-3---|
|-3---3---3---3-3-------|-3-------------|      -1----1--1-1---|
"me so hard pressed"



  Electric 2 (on Elec. 1 repeat, 0:27) - Let all notes ring 
 F|-3--------3--------|-0-----------0---------|-3----------------|----------3--1---|
 C|--5-------3--------|-1---------3-----1---1-|-5----------------|--------1--------|
Ab|----------4--------|-0-------------0---0---|-5----------------|------2----------|
Eb|----------5--------|-2---------------------|------------------|----3------------|
Bb|-------------------|-3---------------------|------------------|-----------------|
 F|-------------------|-----------------------|------------------|-----------------|

|-------------------|-3--------------|-3------------|-------3-----------------|
|-------------------|-1--------------|-3------------|-----1-------------------|
|-rest--------------|-2--------------|-0------------|---2---------------------|
|-------------------|-2--------------|-0------------|-3---------------------0-|
|-------------------|----------------|--------------|-----------------0-2-3---|
|-------------------|----------------|--------------|-----------0-1-3---------|
                                                                * Distortion on!

Chorus
   Electric 1 (no Dist)
 F|-0----0--0-0----0--0-0-|-0----0--0-0--0-0-0-0-0-0--|
 C|-1----1--1-1----1--1-1-|-1----1--1-1--1-1-1-1-1-1--|
Ab|-0----0--0-0----0--0-0-|-2----2--2-2--2-2-2-2-2-2--|
Eb|-2----2--2-2----2--2-2-|-2----2--2-2--3-3-3-3-3-3--|
Bb|-3----3--3-3----3--3-3-|-0----0--0-0--3-3-3-3-3-3--|
 F|-----------------------|--------------1-1-1-1-1-1--|
  |  
  |Electric 2 - Heavy Dist
 F|-----------------------|---------------------------|
 C|-----------------------|---------------------------|
Ab|-5---------------------|-2-------------------------|
Eb|-5---------------------|-2------------3-3--3-------|
Bb|-3---------------------|-0------------3-3--3-------|
 F|-3---------------------|--------------1-1--1-------|
    "Why you gotta be so     mean to me?"  


   Electric 1 
 F|-0----0--0-0----0--0-0-|-0----0--0-0--0-0-0-0-0-0--|
 C|-1----1--1-1----1--1-1-|-1----1--1-1--1-1-1-1-1-1--|
Ab|-0----0--0-0----0--0-0-|-2----2--2-2--2-2-2-2-2-2--|
Eb|-2----2--2-2----2--2-2-|-2----2--2-2--3-3-3-3-3-3--|
Bb|-3----3--3-3----3--3-3-|-0----0--0-0--3-3-3-3-3-3--|
 F|-----------------------|--------------1-1-1-1-1-1--|
  |  
  |Electric 2
 F|-----------------------|----------------------------|
 C|-----------------------|----------------------------|
Ab|-5---------------------|-2--------------------------|
Eb|-5---------------------|-2------------------------0-|
Bb|-3---------------------|-0------------------0-2-3---|
 F|-3---------------------|--------------0-1-3---------|
    "Why you gotta drag me down just to make me see"


   Electric 1
 F|-0----0--0-0----0--0-0-|-0----0--0-0--0-0-0-0-0-0--|
 C|-1----1--1-1----1--1-1-|-1----1--1-1--1-1-1-1-1-1--|
Ab|-0----0--0-0----0--0-0-|-2----2--2-2--2-2-2-2-2-2--|
Eb|-2----2--2-2----2--2-2-|-2----2--2-2--3-3-3-3-3-3--|
Bb|-3----3--3-3----3--3-3-|-0----0--0-0--3-3-3-3-3-3--|
 F|-----------------------|--------------1-1-1-1-1-1--|
  |  
  |Electric 2 - Heavy Dist
 F|-----------------------|---------------------------|
 C|-----------------------|---------------------------|
Ab|-5---------------------|-2-------------------------|
Eb|-5---------------------|-2------------3-3--3-------|
Bb|-3---------------------|-0------------3-3--3-------|
 F|-3---------------------|--------------1-1--1-------|
    "You know I don't listen good and I'm always in need"


   Electric 1              6/4 (6 beats in this bar)
 F|-0----0--0-0----0--0-0-|-0----0--0-0--3------------|
 C|-1----1--1-1----1--1-1-|-1----1--1-1--0------------|
Ab|-0----0--0-0----0--0-0-|-2----2--2-2--0------------|
Eb|-2----2--2-2----2--2-2-|-2----2--2-2--0------------|
Bb|-3----3--3-3----3--3-3-|-0----0--0-0--2------------|
 F|-----------------------|--------------3------------|
  |  
  |Electric 2 - Heavy Dist
  |                        6/4
 F|-----------------------|---------------------------|
 C|-----------------------|---------------------------|
Ab|-5---------------------|-2-------------------------|
Eb|-5---------------------|-2------------5------------|
Bb|-3---------------------|-0------------5------------|
 F|-3---------------------|--------------3------------|
    "So why you gotta be so mean to me"


Play Verse Again, but Electric 2 plays:
 F|-3----3-----3----3-3-|---------------3----------|-3------------3---|
 C|--5-----5---3--------|-5----5----3h5--------5---|-5--------5-----5-|
Ab|------------4--------|-5------5--------5--5---5-|-5----------5-----|
Eb|---------------------|-5------------------------|------------------|
Bb|---------------------|--------------------------|------------------|
 F|---------------------|--------------------------|------------------|

|-------3-1------0h1-|----3-------3----|--------3-------|-3------3---3-|
|-----1--------1-----|------6---6---6--|------5---------|-3------------|
|---2----------------|--------5--------|----------------|-0------------|
|--------------------|-----------------|----------------|-0------------|
|--------------------|-----------------|----------------|--------------|
|--------------------|-----------------|----------------|--------------|

            * Distortion on!
|--------3----------------|
|------1------------------|
|-------------------------|
|----3------------------0-|
|---------------0-2-3-3---|
|-----------1-3-----------|

Play Chorus again


Solo (Chorus is played by Guitar 1 & 2 during solo)
 F|-------------------|--------------------------|------------------------|
 C|--------------5----|--------------------------|--------------8---------|
Ab|-7b9r7b9r7b9--7b9--|-7b9r7p5--------------5---|--7b9r7b9r7b9__--10r8p6-|
Eb|-------------------|---------7~-----7-5h7-----|------------------------|
Bb|-------------------|--------------------------|------------------------|
 F|-------------------|--------------------------|------------------------|

|----------------------------|----------------------|---------------------------|
|-8b10~------5b6r5-----------|----------------------|---------------------------|
|------------------5---------|----7b9r7b9r7b9--7b9--|-7b9____r7p5-------------5-|
|--------------------5-------|----------------------|-------------7-----7-5h7---|
|----------------------8-7-8-|-7--------------------|---------------------------|
|----------------------------|----------------------|---------------------------|

|-----------------|--------------------------|
|-------------8---|-8b10~--------8-----------|
|-7b9r7b9r7b9___--|--------------------------|
|-----------------|--------------------------|
|-----------------|--------------------------|
|-----------------|--------------------------|

Play Verse Again on Electric 1

Play Chorus again 2x to end song, but Electric 2 part changes to:

   play 4x
 F|-----------------------|---------------------------|
 C|-----------------------|---------------------------|
Ab|-5---------------------|-2-------------------------|
Eb|-5---------------------|-2------------3-3--3-------|
Bb|-3---------------------|-0------------3-3--3-------|
 F|-3---------------------|--------------1-1--1-------| 

 F|-----------------------|----------------------------|
 C|-----------------------|----------------------------|
Ab|-5---------------------|-2--------------------------|
Eb|-5---------------------|-2------------------------0-|
Bb|-3---------------------|-0------------------0-2-3---|
 F|-3---------------------|--------------0-1-3---------|





===========================================
===========================================
Song: "Sugar" by Tonic
Open G tuning (DGDGBD), capo II, everything relative to capo
Tabbed by jjhand 
===========================================
===========================================


Verse Riff 1:

   Acoustic 1 
    A                            Amaj7
e |-0---0-0----0-0-0-0-0-0---0-|-0-0--0-0--0-0-0-0-0-0---0-|
C#|-3---3-3----3-3-3-3-3-3---3-|-3-3--3-3--3-3-3-3-3-3---3-|
A |-4---4-4----4-4-4-4-4-4---4-|-4-4--4-4--4-4-4-4-4-4---4-|
E |-5---5-5----5-5-5-5-5-5---5-|-5-5--5-5--5-5-5-5-5-5---5-| continue
A |-0---0-0----0-0-0-0-0-0---0-|-0-0--0-0--0-0-0-0-0-0---0-| below
E |----------------------------|---------------------------|
  |
  | Guitar 2 (Electric possibly)
e |----------------------------|---------------------------|
C#|----------------------------|---------------------------|
A |----------------------------|---------------------------|
E |-5---5-5----5--5-5--5-5---4-|-4-4--4----4--4-4--4-4---0-|
A |-0---0-0----0--0-0--0-0---0-|-0-0--0----0--0-0--0-0---0-|
E |----------------------------|---------------------------|

"Come on baby get your shoes on. You're looking like you need a rescue"



End Verse Riff for both Acoustic/Guitar 2:

  Bm7/A
|-0-0-0-0-0----0--0-0-0-0-0--0-|-0-0-0-0-0----0--0-0-0-0-0--0-|
|-0-0-0-0-0----0--0-0-0-0-0--0-|-0-0-0-0-0----0--0-0-0-0-0--0-|
|-5-5-5-5-5----5--5-5-5-5-5--5-|-5-5-5-5-5----5--5-5-5-5-5--5-|
|-7-7-7-7-7----7--7-7-7-7-7--7-|-7-7-7-7-7----7--7-7-7-7-7--7-|
|-0-0-0-0-0----0--0-0-0-0-0--0-|-0-0-0-0-0----0--0-0-0-0-0--0-|
|------------------------------|------------------------------|

"Underneath the southern moonlight, where only I can find you"




When Drums/Bass begin, Acoustic plays Verse Riff 1 again, and Guitar 2 plays:

Electric Riff 1
e |-5---5-0---5-----|-4---4-0---4-----|-----0---------|-----0---------|
C#|-----------------|-----------------|---------------|---------------|
A |---0-------------|---0-------------|-4/5---4--2----|-4/5---4--2----|
E |-----------------|-----------------|---------------|---------------|
A |-----------------|-----------------|---------------|---------------|
E |-----------------|-----------------|---------------|---------------|

"We can do it with our eyes closed, we can sit and talk for hours"
"Underneath the golden flowers, where my sunshine grows"


play this 2x, then follow with ending:   
     A                 A                 Bm7/A
|-------9-----------|-----7-----------|-----5--------|
|-----8-------------|---7-------------|---0----------|
|---0---------------|-0---------------|-5------------|
|-------------------|-----------------|--------------|
|-------------------|-----------------|--------------|
|-------------------|-----------------|--------------|
1.        "Sugar my love       Sugar my burn."
2.        "Sugar may hide.     Sugar may learn." 

Ending


Acoustic (strummed):
|---0---
|---1---
|---0---
|---2---
|-------
|-------
|
|Electric
|-------0-------------0---------|
|-------------------------------|
|-----0-----------2h4-----4p2p0-|
|-4/5-----4p2p0-----------------|
|-------------------------------|
|-------------------------------|
 




Play Electric Riff 1 again with Verse Riff 1 on Acoustic

Lyrics:
"I could give a thousand reasons. I could live a thousand lives." 
"I know I would always meet you, Underneath a summer sky."

"So come on tell me love is glory, Come on tell me love is real"
"Show me what your heart is made of, Show me what I need to feel"

"Sugar my love, sugar my burn, sugar may hide, sugar may learn"




Chorus- play 3x

   Acoustic
|-0---0-0---0--0-0-0-0-0-0-0-0-|-0---0-0---0-0-0-0-0-0---0-0-|
|-1---1-1---1--1-1-1-1-1-1-1-1-|-3---3-3---3-3-3-3-3-3---3-3-|
|-2---2-2---2--0-0-0-0-0-0-0-0-|-4---4-4---4-4-4-4-4-4---4-4-|
|-3---3-3---3--2-2-2-2-2-2-2-2-|-5---5-5---5-5-5-5-5-5---5-5-|
|--------------0-0-0-0-0-0-0-0-|-0---0-0---0-0-0-0-0-0---0-0-|
|-3---3-3---3------------------|-----------------------------|
| G add2       Dadd9/A               A
|
|  Electric
|------------------------------|-----------------------------|
|------------------------------|-----------------------------|
|------------------------------|-----------------------------|
|------------------------------|-----------------------------|
|-5----5-------/12-----12------|-7----7----7----7------------|
|-3----3-------/10-----10------|-5----5----5----5------------|

1. "Show me that love is worth the wait."
2. "Tell me I'm right." 
3. "Give me your love, don't hesitate" 

Chorus Ending 
  G add2       D/A               A       A/G#                  G       G/F#
|-0---0-0---0--0-0-0-0-0-0-0-0-|-0----0--0-----0-0-0-0-0-0-0-|---------------
|-1---1-1---1--1-1-1-1-1-1-1-1-|-3----3--3-----3-3-3-3-3-3-3-|-1----1--1-----
|-2---2-2---2--0-0-0-0-0-0-0-0-|-4----4--4-----4-4-4-4-4-4-4-|-2----2--2-----
|-3---3-3---3--2-2-2-2-2-2-2-2-|-5----5--5-----5-5-5-5-5-5-5-|-3----3--3-----
|--------------0-0-0-0-0-0-0-0-|-0----0--0-----0-0-0-0-0-0-0-|---------------
|-3---3-3---3------------------|-----------------------------|-3----3--2-----
|
|  Electric
|------------------------------|-----------------------------|---------------
|------------------------------|-----------------------------|---------------
|------------------------------|-----------------------------|---------------
|------------------------------|-----------------------------|---------------
|-5----5-------/12-----12------|-7----7--7-------------------|-5----5--5-----
|-3----3-------/10-----10------|-5----5--4-------------------|-3----3--2-----
 
4. "Show me tonight"





Bridge-

  Acoustic (pm all notes)
|-------------------------|-------------------------|-------------------------|
|-------------------------|-------------------------|-1--1--1--1--1--1--1--1--|
|-------------------------|-------------------------|-2--2--2--2--2--2--2--2--|
|-5--5--5--5--5--5--5--5--|-4--4--4--4--4--4--4--4--|-3--3--3--3--3--3--3--3--|
|-7--7--7--7--7--7--7--7--|-7--7--7--7--7--7--7--7--|-------------------------|
|-------------------------|-------------------------|-3--3--3--3--3--3--3--3--|
|
| Electric (pm all notes)
|-------------------------|-------------------------|-------------------------|
|-------------------------|-------------------------|-------------------------|
|-------------------------|-------------------------|-------------------------|
|-------------------------|-------------------------|-------------------------|
|-7--7--7--7--7--7--7--7--|-7--7--7--7--7--7--7--7--|-5--5--5--5--5--5--5--5--|
|-5--5--5--5--5--5--5--5--|-4--4--4--4--4--4--4--4--|-3--3--3--3--3--3--3--3--|

"I waited so long for a    love so true.           So I'm giving it " 


  Acoustic  (* is pm, both lines)
|------------------------|------------------------|-------------------------|
|-1--1--1--1--1--1--1--1-|-7--7--7--7--7--7--7--7-|-8--8--8--8--8--8--8--8--|
|-2--2--2--2--2--2--2--2-|-8--8--8--8--8--8--8--8-|-9--9--9--9--9--9--9--9--|
|-3--3--3--3--3--3--3--3-|-9--9--9--9--9--9--9--9-|-10-10-10-10-10-10-10-10-|
|------------------------|------------------------|-------------------------|
|-2--2--2--2--2--2--2--2-|-9--9--9--9--9--9--9--9-|-10-10-10-10-10-10-10-10-|
| *  *  *  *  *  *
|
| Electric
|------------------------|-0--0--0--0--0--0--0--0-|----0--0--0--0--0--0--0-|
|------------------------|-7-----7-----7-----7--8~|-------8-----8-----8----|
|------------------------|-0--0--0--0--0--0--0--0-|----0--0--0--0--0--0--0-|
|------------------------|------------------------|------------------------|
|-5--5--5--5--5--5--5--5-|------------------------|------------------------|
|-2--2--2--2--2--2--2--2-|------------------------|------------------------|
  *  *  *  *  *  * 
"all right back to you.    I'm giving   you   my   best of silver" 


  Acoustic  (* is pm, both lines)
|------------------------|-------------------------|--------0------|------------------|
|-7--7--7--7--7--7--7--7-|-8--8--8--8--8--8--8--8--|--------3------|------------------|
|-8--8--8--8--8--8--8--8-|-9--9--9--9--9--9--9--9--|--------2------|-0-0-0-----0--0-0-|
|-9--9--9--9--9--9--9--9-|-10-10-10-10-10-10-10-10-|--------0------|-0-0-0-----0--0-0-|
|------------------------|-------------------------|---------------|-5-4-2-----0--0-0-|
|-9--9--9--9--9--9--9--9-|-10-10-10-10-10-10-10-10-|-0----0--------|-------2----------|
|
| Electric
|-0--0--0--0--0--0--0--0-|----0--0--0--0--0--0--0-|---------0----0-|------------------|
|-7-----7-----7-----7--8~|-------8-----8-----8----|---------3----3-|------------------|
|-0--0--0--0--0--0--0--0-|----0--0--0--0--0--0--0-|---------2----2-|------------------|
|------------------------|------------------------|---------0----0-|------------------|
|------------------------|------------------------|----------------|-5-4-2------------|
|------------------------|------------------------|--0-------------|-------2~---------|
"I'm giving   you   my   best of gold                            La da da da da da"



Acoustic
|-0--0--0--0--0--0--0--0-|
|-1--1--1--1--1--1--1--1-|
|-0--0--0--0--0--0--0--0-|
|-2--2--2--2--2--2--2--2-|
|------------------------|
|------------------------|
|
| Electric
|-0-----0-----0-----0---|
|-1-----1-----1-----1---|
|-0-----0-----0-----0---|
|-2-----2-----2-----2---|
|-----------------------|
|-----------------------|





Electric Solo (with Acoustic playing Verse Riff 1, as noted by chords above each bar)

A                               Amaj7                    Bm7/A        
|-----------------------------|------------------------|-----------|----------------------|
|-----------------------------|------------------------|-----------|----------------------|
|-12~----14b16--14b16r14-12---|-12h14~-----b16r14-12---|-12~-------|----------------------|
|--------------------------14-|---------------------14-|-----------|-12h14--12--10--10h12-|
|-----------------------------|------------------------|-----------|----------------------|
|-----------------------------|------------------------|-----------|----------------------|

A                           Amaj7         Bm7/A                             ** see below
|-------------------------|-------------|-------------|-------------------|---------------|
|-------------------------|-------------|-------------|-------------------|---------------|
|-------------------------|-------------|-------------|-9---7---5---5/7---|-4-------------|
|-7/9~--------------------|-------------|-------------|-10--9---7---7/5---|-5-------------|
|-------------------------|-------------|-------------|-------------------|---------------|
|-------------------------|-------------|-------------|-------------------|---------------|
  Lyrics: "Sugar may hide, sugar may burn ..."




** Acoustic part:
e |-0---0-0----0-0-0-0-0-0---0-|-0-0--0-0--0-0-0-0-0-0---0-|
C#|-3---3-3----3-3-3-3-3-3---3-|-3-3--3-3--3-3-3-3-3-3---3-|
A |-4---4-4----4-4-4-4-4-4---4-|-4-4--4-4--4-4-4-4-4-4---4-|
E |-5---5-5----5-5-5-5-5-5---5-|-4-4--4-4--4-4-4-4-4-4---4-|
A |-0---0-0----0-0-0-0-0-0---0-|-0-0--0-0--0-0-0-0-0-0---0-|
E |----------------------------|---------------------------|

"So come on baby get those shoes on, we can run away from here"


|-0-0-0-0-0----0--0-0-0-0-0--0-|-0-0-0-0-0----0--0-0-0-0-0--0-|--0-|
|-0-0-0-0-0----0--0-0-0-0-0--0-|-1-1-1-1-1----1--1-1-1-1-1--1-|--1-|
|-5-5-5-5-5----5--5-5-5-5-5--5-|-0-0-0-0-0----0--0-0-0-0-0--0-|--0-|
|-7-7-7-7-7----7--7-7-7-7-7--7-|-2-2-2-2-2----2--2-2-2-2-2--2-|--2-|
|-0-0-0-0-0----0--0-0-0-0-0--0-|------------------------------|----|
|------------------------------|------------------------------|----|

"Talk about a life we're starting. We can start it all right here"




Play Chorus again



Ending (3:04) -  Both Guitars
|--------------------------|------------------------|--------------------------|
|-0--0--0--0----0--0--0--0-|-0--0--0--0--0--0--0--0-|-0--0--0--0----0--0--0--0-|
|-0--0--0--0----0--0--0--0-|-0--0--0--0--0--0--0--0-|-0--0--0--0----0--0--0--0-|
|-4--4--4--4--4/5--5--5--5-|-0--0--0--0--0--0--0--0-|-4--4--4--4--4/5--5--5--5-|
|-4--4--4--4--4/5--5--5--5-|-0--0--0--0--x--x--x--x-|-4--4--4--4--4/5--5--5--5-|
|--------------------------|-------------4--4--4--4-|--------------------------|


|------------------------|--------------------------|--------
|-0--0--0--0--0--0--0--0-|-0--0--0--0----0--0--0--0-|--------
|-0--0--0--0--0--0--0--0-|-0--0--0--0----0--0--0--0-|--0-----
|-0--0--0--0--0--0--0--0-|-4--4--4--4--4/5--5--5--5-|--0-----
|-0--0--0--0--x--x--x--x-|-4--4--4--4--4/5--5--5--5-|--0-----
|-------------4--4--4--4-|--------------------------|--------






===========================================
===========================================
Song: "Stronger Than Mine" by Tonic
Tabbed by jjhand
Tuning: Standard, capo First Fret,  Let all notes ring except palm mutes.
===========================================
===========================================

Enjoy and please rate my tabs so others will check them out too!

Intro/Chorus - 
 f|---------||-0---0---0---0-0-----------|-3---3---3---3-3---------|
 C|---------||-1---1---1---1-1-----------|-0---0---0---0-0---------|
Ab|-------0-||-0---0---0---0-0-----0-----|-0---0---0---0-0-------0-|
Eb|-----0---||-2---2---2---2-2---2-------|-0---0---0---0-0-----0---|
Bb|-1h2-----||-3---3---3---3-3-------1b2-|-2---2---2---2-2-1h2-----|
 F|---------||-----------------3---------|-3---3---3---3-3---------|

 f|-0---0---0---0-0-----------|
 C|-1---1---1---1-1-----------|
Ab|-0---0---0---0-0-----0-----|
Eb|-2---2---2---2-2---2-------|
Bb|-3---3---3---3-3-------1b2-|
 F|-----------------3---------|

Verse Bar 1:                         Bar 2 - accent chords
 f|---------------------------------|-------------------------------|
 C|---------------------------------|-------------------------------|
Ab|---------------------------------|-------------------------5-----|
Eb|---------------------------------|---------------------3---5-----|
Bb|---------------------------------|---------------------3---3-----|
 F|-3-3-3-3-3-3-3-3-3-3-3-3-3-3-3-3-|-3-3-3-3-3-3-3-3-3-3-1---------|
  Slight PM on notes

play bar 1 2x

Verse Bar 5 - play 2x
 f|---------------------------------|
 C|---------------------------------|
Ab|---------5---------5---5---5---5-|
Eb|---------5---------5---5---5---5-|
Bb|-3-3-3-3-3-3-3-3-3-3-3-3-3-3-3-3-|
 F|---------------------------------|
   Slight PM on notes

Play Verse Bar 1 & 2 to finish the 8 bar pattern.


When repeat happens, play these bars in order: 1,2,1,1,5,5,2,1


Prechorus - play 2x
  Rhythm (Emerson)
 f|---------------------------------|---------------------------------|
 C|---------------------------------|---------------------------------|
Ab|---------5---------5---5---5---5-|---------------------------------|
Eb|---------5---------5---5---5---5-|---------5---------5---5---5---5-|
Bb|-3-3-3-3-3-3-3-3-3-3-3-3-3-3-3-3-|---------5---------5---5---5---5-|
 F|---------------------------------|-3-3-3-3-3-3-3-3-3-3-3-3-3-3-3-3-|
 |
 | Lead (Jeff)
 f|-----------------3---------------|-----------------2-------3p2-----|
 C|-------------1-------3-----------|---------0-----------3-------3---|
Ab|---------0-----------------------|---------------------------------|
Eb|-----2---------------------------|-----0---------------------------|
Bb|-3-------------------------------|---------------------------------|
 F|---------------------------------|-3-------------------------------|



 f|---------------------------------|---------------|
 C|---------------------------------|---------------|
Ab|---------5---------5---5---5---5-|---------------|
Eb|---------5---------5---5---5---5-|---------5-----|
Bb|-3-3-3-3-3-3-3-3-3-3-3-3-3-3-3-3-|---------5-----|
 F|---------------------------------|-3-3-3-3-3-3---|
  |
  | Lead (Jeff)
 f|-----------------3---------------|---------------|
 C|-------------1-------3-----------|---------0-----|
Ab|---------0-----------------------|---------------|
Eb|-----2---------------------------|-----0---------|
Bb|-3-------------------------------|---------------|
 F|---------------------------------|-3-------------|



 Both Guitars (Lead only is noted by *)
 f|-0-------*0---------|-(0)------------------------|
 C|-1---------*1---*1--|-(1)------------------------|
Ab|-2-----------*2-----|-(2)---------------------0--|
Eb|-2-----*2-----------|-(2)-------------------0----|
Bb|-0---*0-------------|-(0)---------------1h2------|
 F|--------------------|----------------------------|


Chorus - Play Intro 3x without the pick-up notes

End Chorus (Lead only is noted by *) 
 f|-0----0--0--0----0--0--|-0------------*0---------|----
 C|-1----1--1--1----1--1--|-3---------*3------------|----
Ab|-2----2--2--0----0--0--|-0-----*0--------*0------|----
Eb|-2----2--2--2----2--2--|-4--*4-------------------|----
Bb|-0----0--0--3----3--3--|-5-----------------------|----
 F|-----------------------|-------------------------|-3--

AFter Chorus, Lead plays the last note shown for 8 beats 
while Rhythm plays Verse bars 1 & 2



Play verse as before

Lead plays (at 1:38) 
 f|-0----------------|---------0------------|--------------------|----|
 C|-----1------------|-----1-------1--------|---------0----------|----|
Ab|---------0--------|----------------0-----|-----4------2h0-----|----|
Eb|-------------2----|-3--------------------|-5------------------|----|
Bb|------------------|----------------------|--------------------|rest|
 F|------------------|----------------------|--------------------|----|


Play prechorus
Play Chorus

then, play:

Break, play 3x:
 f|-------------------------------|------------------------------|
 C|-------------------------------|-----------------------1--1-1-|
Ab|-------------------------------|-----------------------0--0-0-|
Eb|-----------------------5--5-5--|-----------------------2--2-2-|
Bb|-2/3---2/3---2/3---2/3-5--5-5--|-2/3---2/3---2/3---3\2-3--3-3-|
 F|-0h1---0h1---0h1---0h1-3--3-3--|-0h1---0h1---0h1---1p0-3--3-3-|

then:
 f|-------------------------------|--------------------------|
 C|-------------------------------|--------------------------|
Ab|-------------------------------|------------------------0-|
Eb|-----------------------5--5-5--|----------------------0---|
Bb|-2/3---2/3---2/3---2/3-5--5-5--|-2/3---2/3---2/3--1h2-----|
 F|-0h1---0h1---0h1---0h1-3--3-3--|-0h1---0h1---0h1----------|


Solo
 f|-------------------|------5-------3---|----------------------------|
 C|-------------------|------------------|------6----8----6----8----6~|
Ab|--------------3----|---/5-----5\3-----|--/7-----7----7----7----7---|
Eb|---5-5----3h5---5--|------------------|----------------------------|
Bb|-------------------|------------------|----------------------------|
 F|-------------------|------------------|----------------------------|

 f|-----------------------|-3---3-------------------------|
 C|-5--8p6----6h8--8____\-|-3---3-------------------------|
Ab|-7------7--------------|-5b7-----5b7-5b7~~-7r5p3-5p3---|
Eb|-----------------------|----------------------------5~-|
Bb|-----------------------|-------------------------------|
 F|-----------------------|-------------------------------|

 f|--------------------------|-----0-------------|----------|
 C|----5--5-----3------------|-----0---0---------|----------|
Ab|----5--5-3---3------------|-2/4---4---4-5-5p0-|-7~-------|
Eb|-5---------5-----5--3h5-5-|-------------------|----------|
Bb|--------------------------|-------------------|----------|
 F|--------------------------|-------------------|----------|


At 3:03, Rhythm plays Intro Riff until a fade out

Lead plays (3:03):
 f|---------------------------|-----------------------------|
 C|---------------------------|-----------------------------|
Ab|---------------------------|-----------------------------|
Eb|----5-5---5-3h5-5-3h5p3----|----3-5--5--5p3-5-5p3-5-3----|
Bb|-----------------------5p3-|-3h5----------------------5--|
 F|---------------------------|-----------------------------|

then,

Lead repeat this line with slight changes until fade out
 f|----------------------------|-----------------------------|
 C|----------------------------|-----------------------------|
Ab|----------------------------|-----------------------------|
Eb|-----5-5---5-3h5-5-3h5p3----|----3-5--5--5p3-5-5p3-5-3----|
Bb|------------------------5p3-|-3h5----------------------5--|
 F|-6b7------------------------|-----------------------------|







======================================
======================================
"Queen" by Tonic
standard Tuning, capo 1st Fret
tabbed by jjhand
======================================
======================================

Intro (tab positions are from first fret Capo) - Guitar 1 Clean

   Bbm7                        Eb
e|--------------------------|----------------------5-|-0---------0--------------|
B|----------1---------1-----|----3-------3-----------|-5-3\1-------1------------|
G|------------0-------------|--------------0---0-----|--------------------0-----|
D|-------2------0h2-----2/4-|-(4)----4-------4-------|---------------0h2----2/4-|
A|-0------------------------|------0-----------------|--------------------------|
E|--------------------------|------------------------|--------------------------|

e|----------------------5-|
B|----3-------3-----------|
G|--------------0---0-----|
D|-(4)----4-------4-------|
A|------0-----------------|
E|------------------------|


Verse - Guitar 1, play 4x
e|-0---------0--------------|----------------------5-| <- do not play last note 
B|-5-3\1-------1------------|----3-------3-----------|    on fourth time
G|--------0-----------0-----|--------------0---0-----|
D|---------------0h2----2/4-|-(4)----4-------4-------|
A|--------------------------|------0-----------------|
E|--------------------------|------------------------|



Chorus - play 3x

   Guitar 2 (Distortion)                         Both (after 3x)
e|----------3----------|-0--------------|       --------3-------|
B|-5--------0----------|-0h1------------|       --5-----0-------|
G|-5--------0----------|-0h2------------|       --5-----0-------|
D|-5--------0----------|-0h2------------|       --5-----0-------|
A|-3--------2----------|-0--------------|       --3-----2-------|  
E|-3--------3----------|----------------|       --3-----3-------|
 |
 | Guitar 1 (Distortion)                    
e|------3---3----------|---------0------|   
B|-5--------0----------|-----1-----1----|   
G|-5--------0----------|-2-----------2--|   
D|-5--------0----------|-2--------------|   
A|-3--------2----------|-0--------------|   
E|-3--------3----------|----------------|   


Guitar 2 play Intro, 
Guitar 1 plays:
e|-0--------------|-----------------|--------------|--------------|
B|-1--------------|-----------pb9r7-|-7b9----------|--------------|
G|-2--------------|-----------------|--------------|--------------|
D|-2--------------|-----------------|--------------|--------------|
A|-0--------------|-----------------|--------------|--------------|
E|----------------|-----------------|--------------|--------------|


 Verse is played again on Guitar 1, while Guitar 2 continues:
e|---------------|--------------|---------------|-------------|
B|-8b10----------|--------------|---------------|-------------|
G|---------------|--------------|---------------|-------------|
D|---------------|--------------|---------------|-------------|
A|---------------|--------------|---------------|-------------|
E|---------------|--------------|---------------|-------------|

e|---------------|--------------|---------------|-------------|
B|---------------|--------------|---------------|-------------|
G|---------------|--------------|--7v9----------|-(b9)r7------|
D|-5/7-----------|--------------|---------------|-(b7)r5------| <- this note
A|---------------|--------------|---------------|-------------| rings when trem
E|---------------|--------------|---------------|-------------| bar returns

  Add heavier gain:
e|--------------------|
B|--------------------|
G|-------------5------|
D|-------------5------|
A|-5-5-3qb--0___------| <- the 5th fret notes are actually 
E|--------------------|    in last beat of previous bar

Guitar 1 continues playing random bends until Chorus 2.


Chorus 2 is same as earlier Chorus


Interlude (One Guitar):
  Distortion     Clean
e|-2-------------|-------------------------|-----------------------|-3-----------|
B|-3-------------|---------------1-----1---|-----------------------|-1-----------|
G|-2-------------|-------0-----0---------0-|-----4p0-0-5p0-0-4---0-|-0-----------|
D|-0-------------|---0h2---0h2-------2-----|-----------------------|-2-----------|
A|---------------|-3-----------------------|-2---------------------|-3-----------|
E|---------------|-------------------------|-----------------------|-------------|


Solo Rhythm (first 2 notes are before solo starts):
e|-----||------------------------|-------------------------||
B|-----||------------------------|-------------------------||
G|-----||--------5-----5-5---5---|-5--5---5-----5--5-------||
D|-----||--------5-----5-5---5---|-5--5---5-----5--5-------|| play part between
A|-5-5-||-3qb-0___---------0__---|------0__----------0-5-5-|| double bars 4x
E|-----||------------------------|-------------------------||


Solo
e|---------------------|---------------|--------5-5-----5-|-8__b9-5---5-5~------|
B|----5----------------|---------------|--------------8---|---------8-----------|
G|----7b9-----7b9r7-5~-|-(5~)----------|----7b9-----------|---------------------|
D|---------------------|---------------|------------------|---------------------|
A|---------------------|---------------|------------------|---------------------|
E|---------------------|---------------|------------------|---------------------|

e|-------5-----5-5-----5-5-----|-----------------|------------------------------|
B|-----5-------5-5-----5-5-----|-----------------|----10-10-10-10-8/10--8~~-----|
G|-7b9-----7b9-----7b9-----7-7-|-7b8r7-----------|----9--9--9--9----------------|
D|-----------------------------|----------5--7-7-|------------------------------|
A|-----------------------------|-----------------|------------------------------|
E|-----------------------------|-----------------|------------------------------|

e|-11~--9h11p9---------------------|
B|-------------11---9-11-11~---11\-|
G|---------------------------------|
D|---------------------------------|
A|---------------------------------|
E|---------------------------------|



Play all of Chorus again 2x on both guitars



Outro Riff for Rhythm Guitar:
e|-----------------------------|-------------------------|
B|-----------------------------|-------------------------|
G|-------5---5-5-------5---5-5-|-------7---7-7-----------|
D|-x-x---5---5-5-x-x---5---5-5-|-x-x---7---7-7-x-x-------|
A|-x-x-0__-------x-x-0__-------|-x-x-0__-------x-x-0-5-5-|
E|-----------------------------|-------------------------|

play this line 5x, with added muted string strokes here and there
e|-----------------------------|-------------------------|
B|-----------------------------|-------------------------|
G|-------5---5-5-------5---5-5-|-------7---7-7-----------|
D|-------5---5-5-x-x---5---5-5-|-x-x---7---7-7-x-x-------|
A|-3qb-0__-------x-x-0__-------|-x-x-0__-------x-x-0-5-5-|
E|-----------------------------|-------------------------|




During that repeated line, the lead plays:
e|-----------------------------|-------------------------|
B|-----------------------------|-------------------------|
G|----7b9-b9-b9-7-5------------|-------------------------|
D|------------------7~---------|-(7~)--------------------|
A|-----------------------------|-------------------------|
E|-----------------------------|-------------------------|

e|----------------------------|-------------------------|
B|-----5-5-5-5----------------|-5-----------------------|
G|-----5-5-5-5----------------|-5-----------------------|
D|-------------5-7-7~---------|-----7---5h7~~~~~~~~~\---|
A|----------------------------|-------------------------|
E|----------------------------|-------------------------|

e|--------5-5------5-5---------|-------------------------|
B|--------5-5------5-5-5-8b10~-|-(b10~)------------------|
G|----7b9------7b9-------------|-------------------------|
D|-----------------------------|-------------------------|
A|-----------------------------|-------------------------|
E|-----------------------------|-------------------------|

e|-------------------------|-------------------------|
B|-------------------------|-------------------------|
G|-----------5-5-----------|-5qb---------------------|
D|-------7-7-----7~---7--7-|-------------------------|
A|-------------------------|-------------------------|
E|-------------------------|-------------------------|

e|-------------------------|------------------------------|
B|-------------------------|------------------------------|
G|-------------------------|-5qb----------7b8r7-5---------|
D|-------7-7---7-7----7--7-|----------------------7---5-7-|
A|-------------------------|------------------------------|
E|-------------------------|------------------------------|


Ending Chord (Rhythm Guitar)
e|-------------------------|
B|-------------------------|
G|-2-----------------------|
D|-2-----------------------|
A|-0-----------------------|
E|-------------------------|

Once the Distorted chord fades out, a clean part plays the intro again with a 
slightly different rhythm, so just modify the previous Intro as needed to end the song.





======================================
======================================
Tonic - 'Waiting for the light to change'
Standard Tuning, Capo 3rd Fret on rhythm parts
Tabbed by jjhand at Ultimate Guitar
======================================
======================================

There is 4 layers of guitar in this song (2 clean electrics, 1 overdrive electric, and a 
acoustic). I tried to capture the most defined parts for 2 guitars, so please rate and 

comment.


Intro - Extra Acoustic plays chords shown above part

   Gm                  Bb                Cm                F/A     F7

    Electric 1
 G|------------------|-----3-----3-----|-----------------|---------2------2---0-|
 D|------------------|-------0-----0-0-|-----------------|------------1-----1-0-|
Bb|-----0------------|---------0-------|-----------------|--------------2-----0-|
 F|-----2------------|-----------------|-----------------|----------------------|
 C|---2--------------|-----------------|-0---------------|----------------------|
 G|-0---------2----3-|-(3)-------------|-----------3-----|-2--------------------|
  |
  | Guitar 2 (Dist on)                                               Dist off *
 e|------------------|-----------------|-----------------|-------------------v3-|
 B|------------------|-----------------|-----------------|------6-------------3-|
 G|---------3-5----3-|-(3)-------------|-----5-----3-----|----5---------------3-|
 D|-----------3----3-|-(3)-------------|---5-------------|-7------------------5-|
 A|---5--------------|-----------------|-3---------------|--------------------5-|
 E|-3----------------|-----------------|-----------------|--------------------3-|



Verse - play 2x similarly

  Elec 1 (Capo III)
|-----0-------0----|--------3-----3-----|-----0---------0---|-----2---2---2-----2---0-|
|-----0-------0----|----------0-----0-0-|-----2-------2-----|---------1-----1-----1-0-|
|-----0-------0----|------------0-------|-----2-------------|-------2---------2-----0-|
|------------------|--------------------|-------------------|-------------------------|
|------------------|--------------------|-0-----------------|-------------------------|
|-0-------2------3-|-(3)----------------|---------3-------2-|-(2)---------------------|
|
| Guitar 2 (standard tuning)
|------------------|--------------------|-------------3-----|-------------------------|
|--------3---------|--------------------|-----------4-------|---------4-----4-----4-3-|
|------------------|-------3------------|-----5---------5---|-----------------5-------|
|---------------3--|-(3)-3--------3-----|---5---------------|-----3-------------------|
|------------------|--------------------|-3-----------------|-------------------------|
|------------------|--------------------|-------------------|-------------------------|
 "Brazen is love's redeemer       When you have   so far  to go"



  Elec 1
|-----0-------0----|----------3-----3---|-----0---------0---|-------------2-----2---0-|
|-----0-------0----|------------0-----0-|-----2-------2-----|-------1-1-----1-----1-0-|
|-----0-------0----|--------0-----0-----|-----2-------------|-----------------2-----0-|
|------------------|------0-------------|-------------------|-----2-------------------|
|------------------|--------------------|-0-----------------|-------------------------|
|-0-------2------3-|-(3)----------------|---------3-------2-|-(2)---------------------|
|
| Guitar 2
|------------------|----------7---------|-------3-----------|-------------------------|
|-------3----------|--------3---3-----3-|-------------------|---------4-----4-----4-3-|
|-----3-------3----|-(3)------------3---|-----5-------------|-----------------5-------|
|-----------3------|------3-------------|---5---------3-----|-----3-------------------|
|------------------|--------------------|-3---------5-------|-------------------------|
|------------------|--------------------|-------------------|-------------------------|
"It loves the true believer         For the innocence they own"




Prechorus:
  Gm                     Dm                      Eb                      Bb
  Elec 1 (Capo III)
|-0----0----0-0---0----|-2----2----2--2-2--2---|-0----0----0--0-0--0---|-3----3----3-3--3-3--|
|-0----0----0-0---0----|-3----3----3--3-3--3---|-1----1----1--1-1--1---|-0----0----1-0--0-0--|
|-0----0----0-0---0----|-4----4----4--4-4--4---|-0----0----0--0-0--0---|-0----0----0-0--0-0--|
|-2----2----2-2---2----|-4----4----4--4-4--4---|-2----2----2--2-2--2---|-0----0----0-0--0-0--|
|-2----2----2-2---2----|-2----2----2--2-2--2---|-3----3----3--3-3--3---|-2----2----2-2--2-2--|
|-0----0----0-0---0----|-----------------------|-----------------------|-3----3----3-3--3-3--|
|
| Guitar 2 (Distortion back on, standard tuning)
|-----------3----------|----------------5------|-----------3----------|--------------8-----6-|
|------3---------------|-----------6-----------|----------------4-----|----------6/8__-8\6__-|
|---3------------------|------7----------------|------3---------------|----------------------|
|-5--------------------|---7-------------------|---5------------------|----------------------|
|----------------------|-----------------------|----------------------|----------------------|
|----------------------|-----------------------|----------------------|----------------------|
 "Life is good,     and life is grand      When you're sitting on top of the world"


  Gm                     Dm                      Eb                      F add 2
  Elec 1
|-0----0----0-0---0----|-2----2----2--2-2--2---|-0----0----0--0-0--0---|-0----0----0-0--0-0--|
|-0----0----0-0---0----|-3----3----3--3-3--3---|-1----1----1--1-1--1---|-3----3----3-3--3-3--|
|-0----0----0-0---0----|-4----4----4--4-4--4---|-0----0----0--0-0--0---|-0----0----0-0--0-0--|
|-2----2----2-2---2----|-4----4----4--4-4--4---|-2----2----2--2-2--2---|-4----4----4-4--4-4--|
|-2----2----2-2---2----|-2----2----2--2-2--2---|-3----3----3--3-3--3---|-5----5----5-5--5-5--|
|-0----0----0-0---0----|-----------------------|-----------------------|---------------------|
|
| Guitar 2 
|-----------3----------|----------------5------|-----------3----------|---------------3------|
|------3---------------|-----------6-----------|----------------4-----|---------6------------|
|---3------------------|------7----------------|------3---------------|-----2/3--------------|
|-5--------------------|---7-------------------|---5------------------|-3--------------------|
|----------------------|-----------------------|----------------------|----------------------|
|----------------------|-----------------------|----------------------|----------------------|
 "Life is good  when it's in your hands, And nobody can change your world"




  Chorus

  Elec 1 (distortion)                                       Ending
|-3----3----3----3--0--|-(0)--------------------|           ---------------|
|-0----0----0----0--1--|-(1)--------------------|           -1-------------|
|-0----0----0----0--0--|-(0)--------------------|  play 3x  -2-------------|
|-0----0----0----0--2--|-(2)--------------------|           -2-------------|
|-2----2----2----2--3--|-(3)--------------------|           -0-------------|
|-3----3----3----3-----|------------------------|           ---------------|
|
| Guitar 2 (Dist off)
|----------------------|------------------------|           ---------------3---|
|----------------------|------------------------|           -----4---4-3h4---3-|
|-3h5-3--3h5-3--3h5--3-|--------3---5-3--3---3--|  play 3x  ---5-----5-5-------|
|-3---3--3---3--3----3-|----3h5-3---3-3--3h5-3--|           -5-------5-5-------|
|----------------------|------------------------|           ---------3-3-------|
|----------------------|------------------------|           -------------------|
"I'm just waiting for the light to change"



Repeat Verse Riff before Verse 2 Lyrics Start, 
then continue throughout Verse 2 similarly to the first time through

Verse 2 Lyrics:

"All my prize posessions
That I thought I needed so
Dragged me down on a razor
With a heaviness they tow"



Prechorus 2 Lyrics (play same part as before):

"Always searching for a love that's in bloom
It's a warm and soft embrace
Hoping you'll never be lonely again
It's a fear that you just can't face"


Play Chorus Again


After Chorus 2 is a solo:



Solo (2:46) - Rhythm/Acoustic Chords are shown

 Gm        A         Bb              Cm
e|------------------|---------------|--------------------|------------------|
B|-------6~---------|---------------|-4------4-3---3h4p3-|-1----------------|
G|---5b7__------0h2-|-3---------3/5-|---5--------3-3-----|-2---0------------|
D|------------------|---------------|--------------------|--------3---------|
A|------------------|---------------|--------------------|------------------|
E|------------------|---------------|--------------------|------------------|


|--------------------|-----------------|-----------------------|------------------8---6-|
|------11____--------|-11--------11-12-|-13------11---11h13p11-|-10--\8-6------/8---6---|
|-10b12__--b12r10----|-----------------|-----------------------|------------------------|
|-----------------12-|-----------------|-----------------------|------------------------|
|--------------------|-----------------|-----------------------|------------------------|
|--------------------|-----------------|-----------------------|------------------------|


Play Prechorus parts again

Play Chorus and repeat until end






======================================
======================================
"Waltz With Me" by Tonic
Standard Tuning, Capo 3rd Fret
tabbed by thefoxster55@hotmail.com, with lead part by jjhand
======================================
======================================

Acoustic Chords (from Capo): 
        Eb/Bb  Cm    Ab    Bb    Ab6
         0     0     1     3     x   
         1     1     1     3     x
         0     2     2     4     0
         2     2     3     5     3
         3     0     3     5     3
         3     x     1     3     1

Eb/Bb            Cm
Waltz with me my love
Eb/Bb            Cm
Tell me what you're dreamin of
Ab            Eb/Bb            Cm
Hold me now, We can share our love
Ab         Bb       Eb/Bb
Waltz with me my love



2nd Verse
Eb/Bb               Cm
Paint your face for me
Eb/Bb               Cm
Only here is where I wanna be
Ab                  Eb/Bb         Cm
next to you, while I watch you sleep
Ab        Bb        Eb/Bb
Waltz with me, my love


2nd verse on "Electric 1" (standard tuning, light overdrive)
e|----------------|-----------------|----------------|----------------|
B|-----4-3--4-----|------4-3--4-----|-----4-3--4-----|-----4-3--------|
G|-------------3--|--------------3--|-------------5--|----------5--3--|
D|----------------|-----------------|----------------|----------------|
A|----------------|-----------------|----------------|----------------|
E|----------------|-----------------|----------------|----------------|

e|----------------|-----------------|----------------|----------------|
B|-----4-3--4-----|------4-3--4-----|-----4-3--4-----|-----4-3--4-----|
G|-------------3--|--------------3--|-------------5--|-------------3--|
D|----------------|-----------------|----------------|----------------|
A|----------------|-----------------|----------------|----------------|
E|----------------|-----------------|----------------|----------------|

e|----------------|-----------------|----------------|----------------|
B|-----4----4-----|------4----4-----|-----4-3--4-----|-----4-3--4-----|
G|-------3-----3--|--------3-----3--|-------------3--|-------------5--|
D|----------------|-----------------|----------------|----------------|
A|----------------|-----------------|----------------|----------------|
E|----------------|-----------------|----------------|----------------|

e|----------------|-----------------|----------------|----------3-----|-------3--------|
B|-----4-3--4-----|------4-3--4-----|-----4-3--------|-----4----4--4--|-----4----4-----|
G|-------------3--|--------------3--|----------3-----|-------3-----3--|-------------3--|
D|----------------|-----------------|----------------|----------------|----------------|
A|----------------|-----------------|----------------|----------------|----------------|
E|----------------|-----------------|----------------|----------------|----------------|





Solo (1:41)
 
   Elec. 1
e|----------------|-----------------|----------------|----------------|
B|-----4-3--4-----|------4-3--4-----|-----4-3--4-----|-----4-3--------|
G|-------------3--|--------------3--|-------------5--|----------5--3--|
D|----------------|-----------------|----------------|----------------|
A|----------------|-----------------|----------------|----------------|
E|----------------|-----------------|----------------|----------------|
 |
 | Solo, w/ overdrive
e|----------------|-----------------|----------------|----------------|
B|----------------|-----------------|----------------|----------------|
G|-----10b12~-----|-(b12)-----------|------------8-7-|-(7~)-----------|
D|----------------|-----------------|---------10-----|----------------|
A|----------------|-----------------|----------------|----------------|
E|----------------|-----------------|----------------|----------------|
                    "la la la la la la la                          Ooh"


  Elec. 1
e|----------------|-----------------|------------------|----------------|
B|-----4-3--4--3--|-----4-3---------|-----4----4-------|-------4------4-|
G|-------------3--|----------3--3---|-------3-----3----|-----3------3---|
D|----------------|-----------------|------------------|-1--------0-----|
A|----------------|-----------------|------------------|----------------|
E|----------------|-----------------|------------------|----------------|
 |
 |Solo 
e|----------------|-----------------|------------------|----------------|
B|-11b13r11-------|-8b9r8-----------|----11\----11\----|-8--------------|
G|----------10----|---------8-------|-/12-----10-----8-|----------------|
D|----------------|-----------------|------------------|----------------|
A|----------------|-----------------|------------------|----------------|
E|----------------|-----------------|------------------|----------------|





Bridge (Chord names shown are for Acoustic with 3rd fret Capo)

  Elec. 1
  Cm      Bb        Eb/Bb
e|-----------------|-----------------|-------------------|-----------------|
B|-4------6--------|-----------------|-4-------6---------|-------8----8----|
G|-5------7--------|-8---------------|-5-------7---------|-8-----8h10-8----|
D|-5------8--------|-8----------8----|-5-------8---------|-8-------------8-|
A|-3------8--------|-6------8h10---8-|-3-------8---------|-6---------------|
E|--------6--------|-----------------|---------6---------|-----------------|
  "Tell me somethin                     Will we be broken down?"

  Cm      Bb        Eb/Bb
e|-----------------|-----------------|-------------------|-----------------|
B|-4------6--------|-----------------|-4-------6---------|-----------------|
G|-5------7--------|-8---------------|-5-------7---------|-8---------------|
D|-5------8--------|-8----------8----|-5-------8---------|-8----------8----|
A|-3------8--------|-6------8h10---8-|-3-------8---------|-6------8h10---8-|
E|--------6--------|-----------------|---------6---------|-----------------|
  "Tell me somethin                     Will we be broken down?"


  Cm      Bb       Ab6
e|----------------|-----------------|
B|-4------6-------|-----------------|
G|-5------7-------|-3---------------|
D|-5------8-------|-6---------------|  Electric can use capo to 
A|-3------8-------|-6---------------|  play this Ab6 chord easier
E|--------6-------|-4---------------|
Will we be broken down?



Play/Sing Verse 1 again, then



Ending:

F     G          C/G
Waltz with me my love
F            G          C/G
Oh oh, Waltz with me my love






===================================
===================================
Song: "Sunflower" by Tonic
Album: "Sugar"
Standard Tuning, Capo 1st fret 
tabbed by jjhand
===================================
===================================

Main Riff - Chords indicatd are played by Acoustic Guitar in background

   Dist. Rhythm (Emerson)
    Bb                    Gm           Gm/F
 F|---------------------|---------------------|
 C|---------------------|---------------------|
Ab|-2----2----2--2------|---------------------|
Eb|-2----2----2--2------|-4----4----4--4------|
Bb|-0----0----0--0------|-4----4----4--4------|
 F|---------------------|-2----2----2--0------|
  |
  | Lead, w/ slide & heavy reverb 
 F|--------5----------\-|-\2-----2----------/-|
 C|------5------------\-|-\2---2------------/-|
Ab|---------------------|---------------------|
Eb|----7----------------|----4----------------|
Bb|---------------------|---------------------|
 F|---------------------|---------------------|

During Verse, Rhythm guitar will keep playing but Lead comes back later


   Verse Bridge bars (0:27):
    Ab                    Gm  
 F|---------------------|-----------------------|
 C|---------------------|-----------------------|
Ab|---------------------|-----------------------|
Eb|-5----5----5--5----\-|-4----4----4--4--------|
Bb|-5----5----5--5----\-|-4----4----4--4--------|
 F|-3----3----3--3----\-|-2----2----2--2--------|


Play Main Riff Rhythm part during vocals again with this part added:

Guitar 3 fill (0:32):
 F|----------------------|-----------------------|------------|
 C|----------------------|-----------------------|------------|
Ab|----------------------|-----------------------|------------|
Eb|--------------2-------|-----------------------|------------|
Bb|----------2/4---4\2---|-----------------------|------------|
 F|----------------------|-2---------2--0--2--0--|-3~~--------|



Prechorus - Rhythm Gutiar plays:
    Ab               Cm               Bbsus4           Bb
 F|----------------|----------------|----------------|----------------|
 C|----------------|-3---3---3-3----|-3--3-3-3-3-3-3-|-2--2-2-2-2-2-0-|
Ab|----------------|-4---4---4-4----|-2--2-2-2-2-2-2-|-2--2-2-2-2-2-0-|
Eb|-5---5---5-5----|-4---4---4-4----|-2--2-2-2-2-2-2-|-2--2-2-2-2-2-0-|
Bb|-5---5---5-5----|-2---2---2-2----|-0--0-0-0-0-0-0-|-0--0-0-0-0-0-0-|
 F|-3---3---3-3----|----------------|----------------|----------------|



Chorus - play 3x
    Ebsus4     Ab           Bb  
 F|-----------------------|----------------------|
 C|-3----3--3--0----0--0--|-2----3--2----3-------|
Ab|-0----0--0--0----0--0--|-2----2--2----2--0----|
Eb|-4----4--4--0----0--0--|-2---------------0----|
Bb|-5----5--5-------------|-0---------------0----|
 F|-5----5--5--3----3--3--|----------------------|

   Chorus ending:
    Ab                      Ab/G
 F|-3----3----3--3--3--3--|-3----3----3--3--3----|
 C|-3----3----3--3--3--3--|-3----3----3--3--3----|
Ab|-0----0----0--0--0--0--|-0----0----0--0--0----|
Eb|-0----0----0--0--0--0--|-0----0----0--0--0----|
Bb|-----------------------|----------------------|
 F|-3----3----3--3--3--3--|-2----2----2--2--2--0-|



  Verse 2, same as before, but play Lead slides throughout

  Chorus 2 is same as before


   Bridge (1:58) play 2x
    Bb                     F
 F|---------------------|---------------------|-3----3----3--3--3---|----------------------|
 C|---------------------|---------------------|-3----3----3--3--3---|-3----3----3--3--3--3-|
Ab|-2----2----2--2--2---|---------------------|-0----0----0--0--0---|-2----2----2--2--2--2-|
Eb|-2----2----2--2--2---|-2----2----2--2--2---|-0----0----0--0--0---|-0----0----0--0--0--0-|
Bb|-0----0----0--0--0---|-2----2----2--2--2---|---------------------|-0----0----0--0--0--0-|
 F|---------------------|-0----0----0--0--0---|-3----3----3--3--3---|----------------------|


  Solo (2:14) w/ wah            Rhythm plays Main Riff
 F|------------------|--------------------|-------------------|---------------------|
 C|-----------5------|--------------------|-----------5----7--|-5~~-----------------|
Ab|-6b7--6b7------7--|-6--------------2h4-|-6b7--6b7----------|------4--4b5r4-2-----|
Eb|------------------|----7-------2h4-----|-------------------|-----------------4-2-|
Bb|------------------|--------------------|-------------------|---------------------|
 F|------------------|--------------------|-------------------|---------------------|

 F|-----------------------|-------------------------|------------------|-----------7b8r7-5-|
 C|-----------------------|-------------------------|----------5----7--|-5-----------------|
Ab|-4b6--b6---b6--b6--4-2-|-4h5p4p2--------------2--|-6b7r6b7----------|-------------------|
Eb|-----------------------|---------4--------2h4----|------------------|-------------------|
Bb|-----------------------|-------------------------|------------------|-------------------|
 F|-----------------------|-------------------------|------------------|-------------------|


   End Lead solo (Rhythm Plays Prechorus)  
 F|-7------------|-(7)--------|-----------------|------------|
 C|--------------|------------|------------5----|------------|
Ab|--------------|------------|-----7----7---7--|-6~---------|
Eb|--------------|------------|---7-------------|------------|
Bb|--------------|------------|-----------------|------------|
 F|--------------|------------|-----------------|------------|


Play Chorus

Play Main Riff 1x to end





===================================
===================================
"Drag Me Down" by Tonic
Standard Tuning
tabbed by jjhand
===================================
===================================



Main Riff (starting 0:11) - Rhythm Elec. (w/ distortion)
e|--------------------------------------|--------------------------------------|
B|--------------------------------------|--------------------------------------|
G|--------------------------------------|--------------------------------------|
D|--------------------------------------|--------------------------------------|
A|-----------7---7----6---6----7---7----|-----------7---7-------------7---7----|
E|-0---0--/7--------7-------/7--------7-|-4---4--/7-------7-5---5--/7--------7-|


Verse Part 1 - play 2x

   Rhythm Elec.
e|---------------|---------------|------------------|-------------------|
B|---------------|---------------|------------------|-------------------|
G|-6-------------|-4-------------|------------------|-------------------|
D|-6-------------|-4-------------|------------------|-------------------|
A|-4-------------|-2-------------|----------7--7----|----------7--7-----|
E|---------------|---------------|-0--0--/7-------7-|-0--0--/7-------7\-|
 |
 | Clean Lead
e|---5-4----4----|-0----2--0--2--|----------0--0----|----------0--0-----|
B|--------5------|----4----------|------------------|-------------------|
G|---------------|---------------|------------------|-------------------|
D|---------------|---------------|------------------|-------------------|
A|---------------|---------------|------------------|-------------------|
E|---------------|---------------|------------------|-------------------|



Before Chorus:
   Rhythm Elec.
e|---------------|---------------|---------------|-----------------|
B|---------------|-----5---5p4---|---------------|-----------------|
G|-6-------------|-4---4---4-----|-6----6-6------|-----------------|
D|-6-------------|-4---6---6p4---|-6----6-6------|-7---------------|
A|-4-------------|-2-------------|-4----4-4------|-7---------------|
E|---------------|---------------|---------------|-5---------------|
 |
 | Clean Lead
e|---5-4----4----|-0----2--0--2--|---5-4----4----|----------5------|
B|--------5------|----4----------|--------5------|-----5-5----5----|
G|---------------|---------------|---------------|-----------------|
D|---------------|---------------|---------------|-----------------|
A|---------------|---------------|---------------|-----------------|
E|---------------|---------------|---------------|-----------------|



Chorus - play 2x
   Rhythm
e|-------0----0---|-------------------|-----------------|----------------------|
B|-------0----0---|--------------2----|-----------------|----------------------|
G|-------1----1---|-2------------2----|-6----6-------6--|-4----4-4-----4--4h6--|
D|-2-----2----2---|-2------------2----|-6----6-------6--|-4----4-4-----4--4----|
A|-2--------------|-0-----------------|-4----4-------4--|-2----2-2-----2-------|
E|-0--------------|-------------------|-----------------|----------------------|
 |
 | Lead (w/ thick Chorus & delay) 
e|----4-----4-----|-5-----5-----5-----|-----2-----2-----|-------------------|
B|------5-----5---|---5-----5-----5---|---5---5-----5---|-4-----4-----4-5---|
G|--------4-----4-|-------------------|---------4-----4-|---4-----4---------|
D|----------------|-------------------|-----------------|-------------------|
A|----------------|-------------------|-----------------|-------------------|
E|-0--------------|-------------------|-----------------|-------------------|



Play Main Riff again

Play Verse again



Chorus II: Play Chorus again, but add a third guitar part -

Guitar 3 - played 2x
e|-----0-------|-----0--------|----0-----2-0--|----------------|
B|-4h5-----4-2-|-4h5-----4-2--|-5-------------|-4---2----------|
G|-------------|--------------|---------------|---------4------|
D|-------------|--------------|---------------|----------------|
A|-------------|--------------|---------------|----------------|
E|-------------|--------------|---------------|----------------|


Play Main Riff




Solo (Verse Riff played by Rhythm Guitar)
e|---------------------|----------------|-quieter********---------|
B|------10--------10---|-----9----------|------------|------------|
G|-11-13--13-11------9-|-8-----8-9------|------------|-9----------|
D|---------------------|----------------|-9b11-------|------------|
A|---------------------|----------------|------------|------------|
E|---------------------|----------------|------------|------------|

e|---------------------|----------------|-quieter********---------|
B|------10--------10---|-----9----------|------------|------------|
G|-11-13--13-11------9-|-8-----8-9------|------------|------------|
D|---------------------|----------------|-6/7--------|------------|
A|---------------------|----------------|-------9----|-7----------|
E|---------------------|----------------|------------|------------|



Play 'Before Chorus' Part


Play Chorus II again 2x



Ending:

Play Main Riff with Lead part at 2:33
e|------|-0-----------|-(0)----------|-----------------|---0-------------|-both----|
B|-4--0-|-------------|--------------|-5-----------5---|-4---2---0-------|-guitars-| 
G|------|-------------|--------------|-----6---4-------|-------------2---|---------|
D|------|-------------|--------------|-----------------|-----------------|-2-------|
A|------|-------------|--------------|-----------------|-----------------|-2-------|
E|------|-------------|--------------|-----------------|-----------------|-0-------|







===================================
===================================
Song: "Top Falls Down" by Tonic
Album: "Sugar"
Standard Tuning, Capo 1st fret 
tabbed by jjhand
===================================
===================================



Main Riff - 

 play this part 3x:
   Dist. Rhythm (Emerson)                4th Bar Ending
 F|-------------------------------|      -----------------------------|
 C|-------------------------------|      -----------------------------|
Ab|-------------------------------|      -----------------------------|
Eb|-4b5r4--2----------------------|      -5-5-5-5---x-5-5-5-5---x-2---|
Bb|-4b5r4--2--hold chord----------|      -5-5-5-5---x-5-5-5-5---x-2---|
 F|-2b3r2--0----------------------|      -3-3-3-3---x-3-3-3-3---x-0---|
  |
  | Dist. Lead (Jeff)
 F|------------0--0------0--------|      -0-0-0-0---x-0-0-0-0---x-0---|
 C|------------0--0------0--------|      -2-2-2-2---x-2-2-2-2---x-0---|
Ab|------------4--4--2h4-4--2h4-2-|      -0-0-0-0---x-0-0-0-0---x-1---|
Eb|-------------------------------|      -0-0-0-0---x-0-0-0-0---x-2---|
Bb|-------------------------------|      -----------x-----------x-2---|
 F|-------------------------------|      -3-3-3-3---x-3-3-3-3---x-0---|

repeat the main riff and hold the ending F chord


Verse: The (0) notes are heard in the background on an overdub part (repeated throughout)

 F|---(0)---(0)--(0)-|-etc.-------------|----------------0-|----------------0-|
 C|----------------3-|----------------3-|------------------|------------------|
Ab|-------2------2---|-------2------2---|----1--2--1---2---|----1--2--1---2---|
Eb|----4-----4-------|----4-----4-------|-2----------------|-2----------------|
Bb|-5----------------|-5----------------|------------------|------------------|
 F|------------------|------------------|------------------|------------------|


Lead fill (0:32):
 F|------------------|------------------|------------------|------------------|
 C|------------------|------------------|------------------|------------------|
Ab|------------------|-------2----------|------------------|------------------|
Eb|-5--4-------------|-5--4-----4-------|-7--6-------------|-7--9--7--6-------|
Bb|-------5--------5-|-------------5----|-------7------7-7-|-------------7\---|
 F|------------5h7---|------------------|-------------7-7--|------------------|




Chorus - both guitars play 4x

 F|-0-0-0-0---x-0-0-0-0---x-0---|---------0---0-----------0---0---|
 C|-2-2-2-2---x-2-2-2-2---x-0---|-----0-0-0---0-------0-0-0---0---|
Ab|-0-0-0-0---x-0-0-0-0---x-1---|-2h4-4-4-4---4---2h4-4-4-4---4---|
Eb|-0-0-0-0---x-0-0-0-0---x-2---|---------------------------------|
Bb|-----------x-----------x-2---|---------------------------------|
 F|-3-3-3-3---x-3-3-3-3---x-0---|---------------------------------|
 
  Rhythm guitar holds chord ^     ^ while Lead plays this second bar  

  On fourth time through, lead part holds chord as well.



Verse 2 is same except for extra guitar part (Clean w/ chorus)
 F|------------------|------------------|------------------|------------------|
 C|------------------|------------------|-------------7/9--|------------------|
Ab|-------------9\7--|------------------|-------------7/9--|------------------|
Eb|------------------|------------------|------------------|------------------|
Bb|------------------|------------------|------------------|------------------|
 F|------------------|------------------|------------------|------------------|

play 3x                                                       * 1st time only
 F|------------------|------------------|------------------|--(7h9--7~)-------|
 C|-------------9\7--|------------------|-------------7/9--|------------------|
Ab|-------------9\7--|------------------|-------------7/9--|------------------|
Eb|------------------|------------------|------------------|------------------|
Bb|------------------|------------------|------------------|------------------|
 F|------------------|------------------|------------------|------------------|


Play Chorus again



Break (not sure which guitar plays which part)

    Guitar 1
 F|-3---3-0---3-0---|-2---2-0---2-0---|-0---0-----0-----|-2---2-0---2-0---|
 C|-0-------0-----0-|-0-------0-----0-|-0-------0-----0-|-0-------0-----0-|
Ab|-----------------|-----------------|-----------------|-----------------|
Eb|-----------------|-----------------|-----------------|-----------------|
Bb|-----------------|-----------------|-----------------|-----------------|
 F|-----------------|-----------------|-----------------|-----------------|
  |
  | Guitar 2
 F|-----------------|-----------------|-----------------|-----------------|
 C|-5---------------|-4---------------|-2---------------|-5---------------|
Ab|-----4-----------|-----4-----------|-----4-----------|-----4-----------|
Eb|---------2-------|---------2-------|---------2-------|---------2-------|
Bb|-------------2---|-------------2---|-------------2---|-------------2---|
 F|-----------------|-----------------|-----------------|-----------------|


Break part 2: palm mute this section, except for high notes 

   Rhythm: part in parenthesis is on second time through

 F|-(10\)---------------------|--9\-----------------------|--8\-----------------------|
 C|-(12\)---------------------|-11\-----------------------|-10\-----------------------|
Ab|---------------------------|---------------------------|---------------------------|
Eb|---------------------------|---------------------------|---------------------------|
Bb|------2-2-----2-2-----2-2--|------2-2-----2-2-----2-2--|------2-2-----2-2-----2-2--|
 F|------0-0-3p0-0-0-3p0-0-0--|------0-0-3p0-0-0-3p0-0-0--|------0-0-3p0-0-0-3p0-0-0--|

 F|--7\-----------------------||
 C|--9\-----------------------||
Ab|---------------------------||
Eb|---------------------------||
Bb|------2-2-----2-2-----2-2--||
 F|------0-0-3p0-0-0-3p0-0-0--||


Repeat Rhythm, play Lead Guitar Break Riff as well:                                
 F|-----------------|-----------------|-------------0---|-------------0---|
 C|-5---------------|-4---------------|-1-------1-----2-|-0---------0-----|
Ab|-----4-----------|-----4-----------|-----------------|-----------------|
Eb|---------2-------|---------2-------|-----2-----------|---------2-------|
Bb|-------------2---|-------------2---|-----------------|-----------------|
 F|-----------------|-----------------|-----------------|-----------------|


Play Chorus

Play Main Riff again

Play Break again to end song






=====================================
=====================================
Tonic - "Love a Diamond"
From "Sugar" Album
Tuning: Eb Bb Eb Ab C Eb
tabbed by jjhand
=====================================
=====================================


To get tuning, drop high and low E strings to D and capo 1st fret 


Main Riff (Acoustic):

|-----7---0-7\--5-------5---0-5\---|---------0-----0-----------------|
|----------------------------------|-----3-----3---------------------|
|---------------------5------------|-----------------------0---------|
|----------------------------------|---5-----------------4-----4-----|
|---5---------------3--------------|-------------------5---------5---|
|-0--------------------------------|-5---------------0---------------|


Chorus - Play 4x
 Acoustic
|---------0-------------0-----|---------0-------------0-----|
|-----0-----0-------0-----0---|-----0-----0-------0-----0---|
|-----------------------------|---0-------------0-----------|
|---2-------------2-----------|-0-------------0-------------|
|-----------------------------|-----------------------------|
|-2-------------2-------------|-----------------------------|
|                                         ^ on 4th time, stop here     
|Lead Electric 
|-0---------------------------|-0---------------------------|
|-0---------------------------|-0---------------------------|
|-0---------------------------|-0---------------------------|
|-2---------------------------|-5---------------------------|
|-2---------------------------|-5---------------------------|
|-2---------------------------|-5---------------------------|


Pre-verse Lead (after first chorus)

|-----4---5---7------|-------------------|---7---5------------|
|--------------------|-------------------|-----------5----7b8-|
|-7------------------|---7---------------|-7------------------|
|--------------------|-------9~~--7----9-|--------------------|
|--------------------|-------------------|--------------------|
|--------------------|-------------------|--------------------|

|-----12--14--12h14-14/16---|
|-r7------------------------| bend is held between 3rd and 4th bars
|---------------------------|
|---------------------------|
|---------------------------|
|---------------------------|


Play Main Riff again (1:29), with: 

Lead Riff 1
|----------|------------2---|-------------|-----------------|----------------|
|----------|--------3-------|-3-----------|-----------------|----------------|
|----------|------2---------|-------------|---------0---2---|----------------|
|----------|----------------|-------------|-------4---------|-4--------------|
|-rest-----|----------------|-----rest----|-----------------|-----rest-------|
|----------|----------------|-------------|-----------------|----------------|

|------4p0----5-|-----2/4------0-----|------------4-----|
|---------------|-5\3----------------|--------------3---|
|---------------|--------------------|------------------|
|---------------|--------------------|------------------|
|---------------|--------------------|------------------|
|---------------|--------------------|------------------|


Play Chorus again


After Chorus, play Pre-verse Part again. Play Main Riff again with Lead Riff 1


At 3:10, Lead changes to 
|--------5-----|---------0-------|
|------3-------|-----------------|
|------------0-|-2---------------|
|--------------|-----4-----------|
|--------------|-----------------|
|--------------|-----------------|



Key:
| /  slide up
| \  slide down
| h  hammer-on
| p  pull-off
| ~  vibrato
| b  bend string
| r  release bent string

            
            
Suggest correction
Creating personal tab
Creating personal tab
You can edit any tab online and save it as your Personal.

You can edit, replace or remove any tab part or add personal notes – all changes will be seen only by you.

Personal tabs can be accessed anytime from any device, even offline.
Learn more »
Give kudos to tab author, rate the tab!
1 2 3 4 5
comments
print report bad tab
1 comment total.
0 reply
JimBonJovi 830 Feb 07, 2010 06:30 PM

One of my Top 5 Favorite records. Thanks for this Joe.

guest
You may want to rate the tab now too:
select rating
Wanna post a correction for this tab? Suggest correction