Oops, an error
Loading. Please wait.

You Wanted More tab

version 3
version 3

Whole song

Interactive

by Tonic
17,540 views 51 this week
no commentswrite comment
1 2 3 4 5
x 6
add to favorites
×
Save as Personal and add changes to this tab that will be seen only by you. Learn more ›
×
You can save this tab as Personal to edit and correct it or add notes. All changes will be seen only by you. Learn more »
launch autoscroll
font size
0
reset
how to read this tab
guitar tuner
edit
Autoscroll
slow
fast
+/-
esc
set tempo
stop
Author
Tonic - You Wanted More
From 'Sugar' and 'American Pie' soundtrack
Tuning: Double Drop-D (DADGBD), capo second fret
tabbed by jjhand

         

   Intro - play 2x
  e|-------------------------|-----------------------------|
 C#|-------------------------|-----------------------------|
  A|-------------------------|-----------------------------|
  E|-------------------------|-----------------------------|
  B|---------5-----5---7-----|---------5-----5---7-5-----7-|
  E|---0-5-7---7p0-5---7-----|---0-5-7---7p0-5---7-5-----7-|



Verse - play this 2x (including intro riff bars)

     V
  e|-0------0-----0--|-----------0-----0--|
 C#|-1---------1-----|--1-----------1-----|
  A|-2---------------|-(2)----------------|  play Intro again 1x
  E|-2---------------|-(2)----------------|
  B|-0---------------|-(0)----------------|
  E|-----------------|--------------------|
   
    "Love Is Tragic Love Is Bold You Will ALways Do What You Are Told 
     Love Is Hard Love Is Strong You Will Never Say That You Were Wrong"



Prechorus:
  e|-0----0-----0--|-0-----0-----0--|---------------------|----------------------|
 C#|-1-------1-----|-0--0-----0-----|---------------------|----------------------|
  A|-2-------------|-0--------------|---------------------|----------------------|
  E|-2-------------|----------------|---------------------|----------------------|
  B|-0-------------|----------------|--------3-----3-5----|--------3-----3-5-3-5-|
  E|---------------|----------------|--0-3-5---5p0-3-5----|--0-3-5---5p0-3-5-3-5-|

   "I Don't Know When I Got Bitter
    but Love Is Surely Better When It's Gone"


Chorus - play both parts 2x
  
  Chords strummed by rhythm guitar:
      Dadd9       A          Gadd6      Bm    A/E 
  e|--0--------|--0-------|--0--------|-------0----|
 C#|--1--------|--0-------|--1--------|-1-----0----|
  A|--0--------|--0-------|--0--------|-2-----0----|  
  E|--2--------|--5-------|--3--------|-2-----0----|
  B|--3--------|--5-------|--3--------|-0----------|
  E|-----------|--5-------|--3--------|------------|
   |
   | Lead (some ad-lib may occur):
  e|---5-0-5---5-0-5-|---5-0-5---5-0-5-|-----5---0-5-----|---0------------5-|
 C#|-----------------|-----------------|-----------------|-----5-----0-0-0--|
  A|-5-------5-------|-4-------4-------|---5---5-----5---|-5-------0--------|
  E|-----------------|-----------------|-7-------------7-|------------------|
  B|-----------------|-----------------|-----------------|------------------|
  E|-----------------|-----------------|-----------------|------------------|


   "Cause You Wanted More More Than I could Give More than I could handle 
   In a life that I can't live" 
   "You wanted more More than I could bear More than I could offer For a love that
   isn't there"


Play Verse again with these words:

  "Love is color, Love is loud, Love is never saying that you're too proud"
  "Love is trusting, Love is honest, Love is not a hand to hold you down"
  "I don't know when I got bitter, but love is surely better when it's gone"



Play Chorus again



BreaK:
     Lead, play 3x
   e|-------0-----------0-------|-------------------------|
  C#|---0h1---1p0---0h1---1p0---|-------------------------|
   A|-------------0-----------0-|-(0)---------------------|
   E|---------------------------|-------------------------|
   B|---------------------------|-------------------------|
   E|---------------------------|-------------------------|
    |
    |Acoustic Rhythm chords (strum to recorded rhythm)
   e|-0-------------------------|--0------------|
  C#|-1-------------------------|--0------------|
   A|-0-------------------------|--0------------|
   E|-3-------------------/7----|--5------------|
   B|-3-------------------/7----|--5------------|
   E|-3-------------------/7----|--5------------|

   "I got to pick me up when I am down" 
   "I got to get my feet back on the ground"
   "I got to pick me up when I am down" 


For Break ending, Both guitars strum:
  e|-0--------------|------------------|
 C#|-3--------------|------------------|
  A|-0--------------|-0----------------|
  E|-4--------------|-5----------------|
  B|-5--------------|-3----------------|
  E|-0--------------|-3----------------|


Solo: Starts on end of last beat of previous measure
  e-----|--------------------------|------------------------|
 C#-----|-10------8-----5----------|-5-----6-----3----------|
  A-0-0-|----0-0----0-0--------0-0-|---0-0---0-0--------0-0-|
  E-----|-10-----10-----5----------|-5-----5-----5----------|
  B-----|--------------------------|------------------------|
  E-----|--------------------------|------------------------|


  e|----------------------|-0-0-0-0---------------|
 C#|-3-----5-----1--------|-3-3-3-3-3\1-----1---0-|
  A|---0-0---0-0----------|-----------0---0---0---|
  E|-5-----7-----3--------|-----------------------|
  B|----------------------|-----------------------|
  E|----------------------|-----------------------|

  e|--------------------------|------------------------|-------------------|
 C#|-10------8----------------|-5-----6-----3----------|-1---5p3p1-------1-|
  A|----0-0----0-0--------0-0-|---0-0---0-0--------0-0-|-0---0-------0h2---|
  E|-10-----10-----10---------|-5-----5-----5----------|-------------------|
  B|---------------7----------|------------------------|-------------------|
  E|--------------------------|------------------------|-------------------|

   During solo, rhythm plays the Chorus chords


Play Prechorus

Play Chorus 2x

Play Intro to end song


Key:
h      - hammer-on
p      - pull-off
/ or \ - slide 
()     - note is held from previous bar

            
            
Suggest correction
Creating personal tab
Creating personal tab
You can edit any tab online and save it as your Personal.

You can edit, replace or remove any tab part or add personal notes – all changes will be seen only by you.

Personal tabs can be accessed anytime from any device, even offline.
Learn more »
comments
print report bad tab
guest
You may want to rate the tab now too:
select rating
Wanna post a correction for this tab? Suggest correction