Oops, an error
Loading. Please wait.

Breaking And Entering tab

version 1
version 1

Interactive

10,591 views 6 this week
no commentswrite comment
1 2 3 4 5
x 6
add to favorites
×
Save as Personal and add changes to this tab that will be seen only by you. Learn more ›
×
You can save this tab as Personal to edit and correct it or add notes. All changes will be seen only by you. Learn more »
launch autoscroll
font size
0
reset
how to read this tab
guitar tuner
edit
Autoscroll
slow
fast
+/-
esc
set tempo
stop
Author
Tonight Alive - Breaking and Entering


By: Jack James
First Time i ever posted any tabs.
I worked this out by ear. Should be Right


This song is actually played in C Major, but dropped down 4/5ths to B Major
on the studio version. So here it is if you wan't to play to the song.



Key: B Major
B, C#m, D#m, E, F#, G#m, A#dm, B

B    x24442
C#m  x46654
D#m  x68876
E    022100
F#   244322
G#m  466444




 -----
 Intro
 -----


Guitar 1 (Jake)

   G#m               F#                E                 F#
E|-----------------|-----------------|-----------------|-----------------||
B|-----------------|-----------------|-----------------|-----------------||
G|-4---4---4---4---|-3---3---3---3---|-1---1---1---1---|-3---3---3---3---||
D|-6---6---6---6---|-4---4---4---4---|-2---2---2---2---|-4---4---4---4---||
A|-6---6---6---6---|-4---4---4---4---|-2---2---2---2---|-4---4---4---4---|| 
E|-4---4---4---4---|-2---2---2---2---|-0---0---0---0---|-2---4---4---4---||


E|-----------------|-----------------|-----------------|-----------------||
B|-----------------|-----------------|-----------------|-----------------||
G|-4---4---4---4---|-3---3---3---3---|-1---1---1---1---|-3---3---3---3---||
D|-6---6---6---6---|-4---4---4---4---|-2---2---2---2---|-4---4---4---4---||
A|-6---6---6---6---|-4---4---4---4---|-2---2---2---2---|-4---4---4---4---|| 
E|-4---4---4---4---|-2---2---2---2---|-0---0---0---0---|-2---4---4---4---||



Guitar 2 (Whak)

   G#m               F#                E                 F#
E|-----------------|-----------------|-----------------|-9---9-----------||
B|-12--12--12--12--|-11--11--11--11--|-9---9---9---9---|---------11--11--||
G|---8---8---8---8-|---8---8---8---8-|---8---8---8---8-|---8---8---8---8-||
D|-----------------|-----------------|-----------------|-----------------||
A|-----------------|-----------------|-----------------|-----------------||
E|-----------------|-----------------|-----------------|-----------------||
  
  
E|-----------------|-----------------|-----------------|-9---9-----------||
B|-12--12--12--12--|-11--11--11--11--|-9---9---9---9---|---------11--11--||
G|---8---8---8---8-|---8---8---8---8-|---8---8---8---8-|---8---8---8---8-||
D|-----------------|-----------------|-----------------|-----------------||
A|-----------------|-----------------|-----------------|-----------------||
E|-----------------|-----------------|-----------------|-----------------||
 




 -------
 Verse 1
 -------

Guitar 1
   *(play nothing)


Guitar 2

   G#m                                 F#                 
E|-----------------|-----------------|-----------------|-----------------||
B|-12--12--12--12--|-12--12--12--12--|-11--11--11--11--|-11--11--11--11--||
G|---8---8---8---8-|---8---8---8---8-|---8---8---8---8-|---8---8---8---8-||
D|-----------------|-----------------|-----------------|-----------------||
A|-----------------|-----------------|-----------------|-----------------||
E|-----------------|-----------------|-----------------|-----------------||
   
   C#m                                 F#                
E|-12--12--12--12--|-12--12--12--12--|-----------------|-----------------||
B|---9---9---9---9-|---9---9---9---9-|-11--11--11--11--|-11--11--11--11--||
G|-----------------|-----------------|---8---8---8---8-|---8---8---8---8-||
D|-----------------|-----------------|-----------------|-----------------||
A|-----------------|-----------------|-----------------|-----------------||
E|-----------------|-----------------|-----------------|-----------------||


   G#m                                 F#                 
E|-----------------|-----------------|-----------------|-----------------||
B|-12--12--12--12--|-12--12--12--12--|-11--11--11--11--|-11--11--11--11--||
G|---8---8---8---8-|---8---8---8---8-|---8---8---8---8-|---8---8---8---8-||
D|-----------------|-----------------|-----------------|-----------------||
A|-----------------|-----------------|-----------------|-----------------||
E|-----------------|-----------------|-----------------|-----------------||
   
   C#m                                 F#                
E|-12--12--12--12--|-12--12--12--12--|-----------------|-----------------||
B|---9---9---9---9-|---9---9---9---9-|-11--11--11--11--|-11--11--11--11--||
G|-----------------|-----------------|---8---8---8---8-|---8---8---8---8-||
D|-----------------|-----------------|-----------------|-----------------||
A|-----------------|-----------------|-----------------|-----------------||
E|-----------------|-----------------|-----------------|-----------------||


   E                D#m
E|-12--------------|-11--------------|
B|-----------------|-----------------|
G|-----------------|-----------------|
D|-----------------|-----------------|
A|-----------------|-----------------|
E|-----------------|-----------------|






 --------
 Chorus 1
 --------


Guitar 1


   G#m                                 F#
E|-----------------|-----------------|-----------------|-----------------||
B|-----------------|-----------------|-----------------|-----------------||
G|-----------------|-----------------|-----------------|-----------------||
D|-6-6-----------6-|---6-6-----6-6---|-4-4-----------4-|---4-4-----4-4---||
A|-6-6-----------6-|---6-6-----6-6---|-4-4-----------4-|---4-4-----4-4---|| 
E|-4-4-----------4-|---4-4-----4-4---|-2-2-----------2-|---2-2-----2-2---||

   B                                   E                F#
E|-----------------|-----------------|-----------------|-----------------||
B|-----------------|-----------------|-----------------|-----------------||
G|-4-4-----------4-|---4-4-----4-4---|-----------------|-----------------||
D|-4-4-----------4-|---4-4-----4-4---|-2*2*2*2*2*2*2*2*|-4*4*4*4*4-------||
A|-2-2-----------2-|---2-2-----2-2---|-2-2-2-2-2-2-2-2-|-4-4-4-4-4-------|| 
E|-----------------|-----------------|-0-0-0-0-0-0-0-0-|-2-2-2-2-2-------||
                                                              
                                                              (*=Palm Mute)
   G#m                                 F#
E|-----------------|-----------------|-----------------|-----------------||
B|-----------------|-----------------|-----------------|-----------------||
G|-----------------|-----------------|-----------------|-----------------||
D|-6-6-6-6-6-6-6-6-|-6-6-6-6-6-6-6-6-|-4-4-4-4-4-4-4-4-|-4-4-4-4-4-4-4-4-||
A|-6-6-6-6-6-6-6-6-|-6-6-6-6-6-6-6-6-|-4-4-4-4-4-4-4-4-|-4-4-4-4-4-4-4-4-|| 
E|-4-4-4-4-4-4-4-4-|-4-4-4-4-4-4-4-4-|-2-2-2-2-2-2-2-2-|-2-2-2-2-2-2-2-2-||

   B                                   E
E|-----------------|-----------------|-----------------|-----------------||
B|-----------------|-----------------|-----------------|-----------------||
G|-4-4-4-4-4-4-4-4-|-4-4-4-4-4-4-4-4-|-----------------|-----------------||
D|-4-4-4-4-4-4-4-4-|-4-4-4-4-4-4-4-4-|-2-2-2-2-2-2-2-2-|-2-2-2-2-2-2-2-2-||
A|-2-2-2-2-2-2-2-2-|-2-2-2-2-2-2-2-2-|-2-2-2-2-2-2-2-2-|-2-2-2-2-2-2-2-2-|| 
E|-----------------|-----------------|-0-0-0-0-0-0-0-0-|-0-0-0-0-0-0-0-0-||
 


Guitar 2


   G#m                                 F#
E|-----------------|-----------------|-----------------|-----------------||
B|-4-4-4-4-4-4-4-4-|-4-4-4-4-4-4-4-4-|-7-7-7-7-7-7-7-7-|-7-7-7-7-7-7-7-7-||
G|-4-4-4-4-4-4-4-4-|-4-4-4-4-4-4-4-4-|-6-6-6-6-6-6-6-6-|-6-6-6-6-6-6-6-6-||
D|-6-6-6-6-6-6-6-6-|-6-6-6-6-6-6-6-6-|-8-8-8-8-8-8-8-8-|-8-8-8-8-8-8-8-8-||
A|-----------------|-----------------|-----------------|-----------------|| 
E|-----------------|-----------------|-----------------|-----------------||

   B                                   E                F#
E|-----------------|-----------------|-----------------|-----------------||
B|-7-7-7-7-7-7-7-7-|-7-7-7-7-7-7-7-7-|-----------------|-----------------||
G|-8-8-8-8-8-8-8-8-|-8-8-8-8-8-8-8-8-|-----------------|-----------------||
D|-9-9-9-9-9-9-9-9-|-9-9-9-9-9-9-9-9-|-2*2*2*2*2*2*2*2*|-4*4*4*4*4-------||
A|-----------------|-----------------|-2-2-2-2-2-2-2-2-|-4-4-4-4-4-------|| 
E|-----------------|-----------------|-0-0-0-0-0-0-0-0-|-2-2-2-2-2-------||
                                                              
                                                              (*=Palm Mute)
   G#m                                 F#
E|-----------------|-----------------|-----------------|-----------------||
B|-4-4-4-4-4-4-4-4-|-4-4-4-4-4-4-4-4-|-7-7-7-7-7-7-7-7-|-7-7-7-7-7-7-7-7-||
G|-4-4-4-4-4-4-4-4-|-4-4-4-4-4-4-4-4-|-6-6-6-6-6-6-6-6-|-6-6-6-6-6-6-6-6-||
D|-6-6-6-6-6-6-6-6-|-6-6-6-6-6-6-6-6-|-8-8-8-8-8-8-8-8-|-8-8-8-8-8-8-8-8-||
A|-----------------|-----------------|-----------------|-----------------|| 
E|-----------------|-----------------|-----------------|-----------------||

   B                                   E
E|-----------------|-----------------|-----------------|-----------------||
B|-7-7-7-7-7-7-7-7-|-7-7-7-7-7-7-7-7-|-----------------|-----------------||
G|-8-8-8-8-8-8-8-8-|-8-8-8-8-8-8-8-8-|-----------------|-----------------||
D|-9-9-9-9-9-9-9-9-|-9-9-9-9-9-9-9-9-|-2-2-2-2-2-2-2-2-|-2-2-2-2-2-2-2-2-||
A|-----------------|-----------------|-2-2-2-2-2-2-2-2-|-2-2-2-2-2-2-2-2-|| 
E|-----------------|-----------------|-0-0-0-0-0-0-0-0-|-0-0-0-0-0-0-0-0-||
 





 -------
 Verse 2
 -------


Guitar 1


E|-----------------|-----------------|-----------------|-----------------||
B|-----------------|-----------------|-----------------|-----------------||
G|-----------------|-----------------|-----------------|-----------------||
D|-----------------|-----------------|-----------------|-----------------||
A|-----------------|-----------------|-----------------|-----------------|| 
E|-----------------|-----------------|-----------------|-----------------||

E|-----------------|-----------------|-----------------|-----------------||
B|-----------------|-----------------|-----------------|-----------------||
G|-----------------|-----------------|-----------------|-----------------||
D|-----------------|-----------------|-----------------|-----------------||
A|-----------------|-----------------|-----------------|-----------------|| 
E|-----------------|-----------------|-----------------|-----------------||

                                                  
    G#m                                 F#         (vv  = all palm muted)
E|-----------------|-----------------|-----------------|-----------------||
B|-----------------|-----------------|-----------------|-----------------||
G|-----------------|-----------------|-----------------|-----------------||
D|-6-6-6-6-6-6-6-6-|-6-6-6-6-6-6-6-6-|-4-4-4-4-4-4-4-4-|-4-4-4-4-4-4-4-4-||
A|-6-6-6-6-6-6-6-6-|-6-6-6-6-6-6-6-6-|-4-4-4-4-4-4-4-4-|-4-4-4-4-4-4-4-4-|| 
E|-4-4-4-4-4-4-4-4-|-4-4-4-4-4-4-4-4-|-2-2-2-2-2-2-2-2-|-2-2-2-2-2-2-2-2-||

   C#m                                 F#
E|-----------------|-----------------|-----------------|-----------------||
B|-----------------|-----------------|-----------------|-----------------||
G|-6-6-6-6-6-6-6-6-|-6-6-6-6-6-6-6-6-|-----------------|-----------------||
D|-6-6-6-6-6-6-6-6-|-6-6-6-6-6-6-6-6-|-2-2-2-2-2-2-2-2-|-2-2-2-2-2-2-2-2-||
A|-4-4-4-4-4-4-4-4-|-4-4-4-4-4-4-4-4-|-2-2-2-2-2-2-2-2-|-2-2-2-2-2-2-2-2-|| 
E|-----------------|-----------------|-0-0-0-0-0-0-0-0-|-0-0-0-0-0-0-0-0-||
 


Guitar 2


   G#m                                 F#                 
E|-----------------|-----------------|-----------------|-----------------||
B|-12--12--12--12--|-12--12--12--12--|-11--11--11--11--|-11--11--11--11--||
G|---8---8---8---8-|---8---8---8---8-|---8---8---8---8-|---8---8---8---8-||
D|-----------------|-----------------|-----------------|-----------------||
A|-----------------|-----------------|-----------------|-----------------||
E|-----------------|-----------------|-----------------|-----------------||
   
   C#m                                 F#                
E|-12--12--12--12--|-12--12--12--12--|-----------------|-----------------||
B|---9---9---9---9-|---9---9---9---9-|-11--11--11--11--|-11--11--11--11--||
G|-----------------|-----------------|---8---8---8---8-|---8---8---8---8-||
D|-----------------|-----------------|-----------------|-----------------||
A|-----------------|-----------------|-----------------|-----------------||
E|-----------------|-----------------|-----------------|-----------------||


   G#m                                 F#                 
E|-----------------|-----------------|-----------------|-----------------||
B|-12--12--12--12--|-12--12--12--12--|-11--11--11--11--|-11--11--11--11--||
G|---8---8---8---8-|---8---8---8---8-|---8---8---8---8-|---8---8---8---8-||
D|-----------------|-----------------|-----------------|-----------------||
A|-----------------|-----------------|-----------------|-----------------||
E|-----------------|-----------------|-----------------|-----------------||
   
   C#m                                 F#                
E|-12--12--12--12--|-12--12--12--12--|-----------------|-----------------||
B|---9---9---9---9-|---9---9---9---9-|-11--11--11--11--|-11--11--11--11--||
G|-----------------|-----------------|---8---8---8---8-|---8---8---8---8-||
D|-----------------|-----------------|-----------------|-----------------||
A|-----------------|-----------------|-----------------|-----------------||
E|-----------------|-----------------|-----------------|-----------------||




 ----------
 Pre Chorus
 ----------


                "....I'm Burning Up, I Don't Know The Girl In The Mirror Now"
Guitar 1

                                                 
   E                                   F#         (all Palm Muted)
E|-----------------|-----------------|-----------------|-----------------||
B|-----------------|-----------------|-----------------|-----------------||
G|-----------------|-----------------|-----------------|-----------------||
D|-2-2-2-2-2-2-2-2-|-2-2-2-2-2-2-2-2-|-4-4-4-4-4-4-4-4-|-4-4-4-4-4-4-4-4-||
A|-2-2-2-2-2-2-2-2-|-2-2-2-2-2-2-2-2-|-4-4-4-4-4-4-4-4-|-4-4-4-4-4-4-4-4-|| 
E|-0-0-0-0-0-0-0-0-|-0-0-0-2-0-0-0-0-|-2-2-2-2-2-2-2-2-|-2-2-2-2-2-2-2-2-||

   G#m                                 B
E|-----------------|-----------------|-----------------|-----------------||
B|-----------------|-----------------|-----------------|-----------------||
G|-----------------|-----------------|-4-4-4-4-4-4-4-4-|-4-4-4-4-4-4-4-4-||
D|-6-6-6-6-6-6-6-6-|-6-6-6-6-6-6-6-6-|-4-4-4-4-4-4-4-4-|-4-4-4-4-4-4-4-4-||
A|-6-6-6-6-6-6-6-6-|-6-6-6-6-6-6-6-6-|-2-2-2-2-2-2-2-2-|-2-2-2-2-2-2-2-2-|| 
E|-4-4-4-4-4-4-4-4-|-4-4-4-4-4-4-4-4-|-----------------|-----------------||
 



Guitar 2


   G#m                                 F#                 
E|-----------------|-----------------|-----------------|-----------------||
B|-12--12--12--12--|-12--12--12--12--|-11--11--11--11--|-11--11--11--11--||
G|---8---8---8---8-|---8---8---8---8-|---8---8---8---8-|---8---8---8---8-||
D|-----------------|-----------------|-----------------|-----------------||
A|-----------------|-----------------|-----------------|-----------------||
E|-----------------|-----------------|-----------------|-----------------||
   
   G#m                                 B                
E|-12--12--12--12--|-12--12--12--12--|-11--11--11--11--|-9---9---9---9---||
B|---9---9---9---9-|---9---9---9---9-|-----------------|-----------------||
G|-----------------|-----------------|---8---8---8---8-|---8---8---8---8-||
D|-----------------|-----------------|-----------------|-----------------||
A|-----------------|-----------------|-----------------|-----------------||
E|-----------------|-----------------|-----------------|-----------------||






 --------
 Chorus 2
 --------


Guitar 1


   G#m                                 F#
E|-----------------|-----------------|-----------------|-----------------|
B|-----------------|-----------------|-----------------|-----------------|
G|-----------------|-----------------|-----------------|-----------------|
D|-6-6-6-6-6-6-6-6-|-6-6-6-6-6-6-6-6-|-4-4-4-4-4-4-4-4-|-4-4-4-4-4-4-4-4-|
A|-6-6-6-6-6-6-6-6-|-6-6-6-6-6-6-6-6-|-4-4-4-4-4-4-4-4-|-4-4-4-4-4-4-4-4-|
E|-4-4-4-4-4-4-4-4-|-4-4-4-4-4-4-4-4-|-2-2-2-2-2-2-2-2-|-2-2-2-2-2-2-2-2-|

   B                                   E
E|-----------------|-----------------|-----------------|-----------------||
B|-----------------|-----------------|-----------------|-----------------||
G|-4-4-4-4-4-4-4-4-|-4-4-4-4-4-4-4-4-|-----------------|-----------------||
D|-4-4-4-4-4-4-4-4-|-4-4-4-4-4-4-4-4-|-2-2-2-2-2-2-2-2-|-2-2-2-2-2-2-2-2-||
A|-2-2-2-2-2-2-2-2-|-2-2-2-2-2-2-2-2-|-2-2-2-2-2-2-2-2-|-2-2-2-2-2-2-2-2-|| 
E|-----------------|-----------------|-0-0-0-0-0-0-0-0-|-0-0-0-0-0-0-0-0-||
                                                    
          
   G#m                                 F#
E|-----------------|-----------------|-----------------|-----------------|
B|-----------------|-----------------|-----------------|-----------------|
G|-----------------|-----------------|-----------------|-----------------|
D|-6-6-6-6-6-6-6-6-|-6-6-6-6-6-6-6-6-|-4-4-4-4-4-4-4-4-|-4-4-4-4-4-4-4-4-|
A|-6-6-6-6-6-6-6-6-|-6-6-6-6-6-6-6-6-|-4-4-4-4-4-4-4-4-|-4-4-4-4-4-4-4-4-| 
E|-4-4-4-4-4-4-4-4-|-4-4-4-4-4-4-4-4-|-2-2-2-2-2-2-2-2-|-2-2-2-2-2-2-2-2-|

    B                                   E                F#
E|-----------------|-----------------|-----------------|-----------------||
B|-----------------|-----------------|-----------------|-----------------||
G|-4-4-4-4-4-4-4-4-|-4-4-4-4-4-4-4-4-|-----------------|-----------------||
D|-4-4-4-4-4-4-4-4-|-4-4-4-4-4-4-4-4-|-2-2-2-2-2-2-2-2-|-4-4-4-4-4-4-4-4-||
A|-2-2-2-2-2-2-2-2-|-2-2-2-2-2-2-2-2-|-2-2-2-2-2-2-2-2-|-4-4-4-4-4-4-4-4-|| 
E|-----------------|-----------------|-0-0-0-0-0-0-0-0-|-2-2-2-2-2-2-2-2-||



Guitar 2


   G#m                                 F#
E|-----------------|-----------------|-----------------|-----------------|
B|-4-4-4-4-4-4-4-4-|-4-4-4-4-4-4-4-4-|-7-7-7-7-7-7-7-7-|-7-7-7-7-7-7-7-7-|
G|-4-4-4-4-4-4-4-4-|-4-4-4-4-4-4-4-4-|-6-6-6-6-6-6-6-6-|-6-6-6-6-6-6-6-6-|
D|-6-6-6-6-6-6-6-6-|-6-6-6-6-6-6-6-6-|-8-8-8-8-8-8-8-8-|-8-8-8-8-8-8-8-8-|
A|-----------------|-----------------|-----------------|-----------------|
E|-----------------|-----------------|-----------------|-----------------|

   B                                   E                
E|-----------------|-----------------|-----------------|-----------------||
B|-7-7-7-7-7-7-7-7-|-7-7-7-7-7-7-7-7-|-----------------|-----------------||
G|-8-8-8-8-8-8-8-8-|-8-8-8-8-8-8-8-8-|-----------------|-----------------||
D|-9-9-9-9-9-9-9-9-|-9-9-9-9-9-9-9-9-|-2-2-2-2-2-2-2-2-|-2-2-2-2-2-2-2-2-||
A|-----------------|-----------------|-2-2-2-2-2-2-2-2-|-2-2-2-2-2-2-2-2-|| 
E|-----------------|-----------------|-0-0-0-0-0-0-0-0-|-0-0-0-0-0-0-0-0-||
                                                                      
                     
   G#m                                 F#
E|-----------------|-----------------|-----------------|-----------------|
B|-4-4-4-4-4-4-4-4-|-4-4-4-4-4-4-4-4-|-7-7-7-7-7-7-7-7-|-7-7-7-7-7-7-7-7-|
G|-4-4-4-4-4-4-4-4-|-4-4-4-4-4-4-4-4-|-6-6-6-6-6-6-6-6-|-6-6-6-6-6-6-6-6-|
D|-6-6-6-6-6-6-6-6-|-6-6-6-6-6-6-6-6-|-8-8-8-8-8-8-8-8-|-8-8-8-8-8-8-8-8-|
A|-----------------|-----------------|-----------------|-----------------|
E|-----------------|-----------------|-----------------|-----------------|

   B                                   E                 F#
E|-----------------|-----------------|-----------------|-----------------||
B|-7-7-7-7-7-7-7-7-|-7-7-7-7-7-7-7-7-|-----------------|-----------------||
G|-8-8-8-8-8-8-8-8-|-8-8-8-8-8-8-8-8-|-----------------|-----------------||
D|-9-9-9-9-9-9-9-9-|-9-9-9-9-9-9-9-9-|-2-2-2-2-2-2-2-2-|-4-4-4-4-4-4-4-4-||
A|-----------------|-----------------|-2-2-2-2-2-2-2-2-|-4-4-4-4-4-4-4-4-|| 
E|-----------------|-----------------|-0-0-0-0-0-0-0-0-|-2-2-2-2-2-2-2-2-||
 


 -------
 (INTRO) 2
 -------

Guitar 1 

   G#m               F#                E                 F#
E|-----------------|-----------------|-----------------|-----------------||
B|-----------------|-----------------|-----------------|-----------------||
G|-4-4---4-4---4---|---3---3-3-3-3---|-1-1---1-1---1---|---3---3-3-3-3---||
D|-6-6---6-6---6---|---4---4-4-4-4---|-2-2---2-2---2---|---4---4-4-4-4---||
A|-6-6---6-6---6---|---4---4-4-4-4---|-2-2---2-2---2---|---4---4-4-4-4---||
E|-4-4---4-4---4---|---2---2-2-2-2---|-0-0---0-0---0---|---2---4-4-4-4---||


E|-----------------|-----------------|-----------------|-----------------||
B|-----------------|-----------------|-----------------|-----------------||
G|-4-4---4-4---4---|---3---3-3-3-3---|-1-1---1-1---1---|---3---3-3-3-3---||
D|-6-6---6-6---6---|---4---4-4-4-4---|-2-2---2-2---2---|---4---4-4-4-4---||
A|-6-6---6-6---6---|---4---4-4-4-4---|-2-2---2-2---2---|---4---4-4-4-4---||
E|-4-4---4-4---4---|---2---2-2-2-2---|-0-0---0-0---0---|---2---4-4-4-4---||




Guitar 2 

   G#m               F#                E                 F#
E|-----------------|-----------------|-----------------|-9---9-----------||
B|-12--12--12--12--|-11--11--11--11--|-9---9---9---9---|---------11--11--||
G|---8---8---8---8-|---8---8---8---8-|---8---8---8---8-|---8---8---8---8-||
D|-----------------|-----------------|-----------------|-----------------||
A|-----------------|-----------------|-----------------|-----------------||
E|-----------------|-----------------|-----------------|-----------------||
  
  
E|-----------------|-----------------|-----------------|-9---9-----------||
B|-12--12--12--12--|-11--11--11--11--|-9---9---9---9---|---------11--11--||
G|---8---8---8---8-|---8---8---8---8-|---8---8---8---8-|---8---8---8---8-||
D|-----------------|-----------------|-----------------|-----------------||
A|-----------------|-----------------|-----------------|-----------------||
E|-----------------|-----------------|-----------------|-----------------||
 




 ----------
 (Pre Chorus) 2
 ----------


                             
Guitar 1

                                                 
   E                                   F#         (*all Palm Muted)
E|-----------------|-----------------|-----------------|-----------------||
B|-----------------|-----------------|-----------------|-----------------||
G|-----------------|-----------------|-----------------|-----------------||
D|-2-2-2-2-2-2-2-2-|-2-2-2-2-2-2-2-2-|-4-4-4-4-4-4-4-4-|-4-4-4-4-4-4-4-4-||
A|-2-2-2-2-2-2-2-2-|-2-2-2-2-2-2-2-2-|-4-4-4-4-4-4-4-4-|-4-4-4-4-4-4-4-4-|| 
E|-0-0-0-0-0-0-0-0-|-0-0-0-2-0-0-0-0-|-2-2-2-2-2-2-2-2-|-2-2-2-2-2-2-2-2-|*

   G#m                                 B
E|-----------------|-----------------|-----------------|-----------------||
B|-----------------|-----------------|-----------------|-----------------||
G|-----------------|-----------------|-4-4-4-4-4-4-4-4-|-4-4-4-4-4-4-4-4-||
D|-6-6-6-6-6-6-6-6-|-6-6-6-6-6-6-6-6-|-4-4-4-4-4-4-4-4-|-4-4-4-4-4-4-4-4-||
A|-6-6-6-6-6-6-6-6-|-6-6-6-6-6-6-6-6-|-2-2-2-2-2-2-2-2-|-2-2-2-2-2-2-2-2-|| 
E|-4-4-4-4-4-4-4-4-|-4-4-4-4-4-4-4-4-|-----------------|-----------------|*
 
                                    "....Falling Apart, Falling Apart"
 
                                                 
   E                                   F#        
E|-----------------|-----------------|-----------------|-----------------||
B|-----------------|-----------------|-----------------|-----------------||
G|-----------------|-----------------|-----------------|-----------------||
D|-2-2-2-2-2-2-2-2-|-2-2-2-2-2-2-2-2-|-4-4-4-4-4-4-4-4-|-4-4-4-4-4-4-4-4-||
A|-2-2-2-2-2-2-2-2-|-2-2-2-2-2-2-2-2-|-4-4-4-4-4-4-4-4-|-4-4-4-4-4-4-4-4-|| 
E|-0-0-0-0-0-0-0-0-|-0-0-0-2-0-0-0-0-|-2-2-2-2-2-2-2-2-|-2-2-2-2-2-2-2-2-|*

   G#m                                 B
E|-----------------|-----------------|-----------------|-----------------||
B|-----------------|-----------------|-----------------|-----------------||
G|-----------------|-----------------|-4-4-4-4-4-4-4-4-|-4-4-4-4-4-4-4-4-||
D|-6-6-6-6-6-6-6-6-|-6-6-6-6-6-6-6-6-|-4-4-4-4-4-4-4-4-|-4-4-4-4-4-4-4-4-||
A|-6-6-6-6-6-6-6-6-|-6-6-6-6-6-6-6-6-|-2-2-2-2-2-2-2-2-|-2-2-2-2-2-2-2-2-|| 
E|-4-4-4-4-4-4-4-4-|-4-4-4-4-4-4-4-4-|-----------------|-----------------|*

                                       "....Falling Apart, Falling Apart"

                                                 
   E                                   F#        
E|-----------------|-----------------|-----------------|-----------------||
B|-----------------|-----------------|-----------------|-----------------||
G|-----------------|-----------------|-----------------|-----------------||
D|-2-2-2-2-2-2-2-2-|-2-2-2-2-2-2-2-2-|-4-4-4-4-4-4-4-4-|-4-4-4-4-4-4-4-4-||
A|-2-2-2-2-2-2-2-2-|-2-2-2-2-2-2-2-2-|-4-4-4-4-4-4-4-4-|-4-4-4-4-4-4-4-4-|| 
E|-0-0-0-0-0-0-0-0-|-0-0-0-2-0-0-0-0-|-2-2-2-2-2-2-2-2-|-2-2-2-2-2-2-2-2-|*

   G#m                                 B
E|-----------------|-----------------|-----------------|-----------------||
B|-----------------|-----------------|-----------------|-----------------||
G|-----------------|-----------------|-4-4-4-4-4-4-4-4-|-4-4-4-4-4-4-4-4-||
D|-6-6-6-6-6-6-6-6-|-6-6-6-6-6-6-6-6-|-4-4-4-4-4-4-4-4-|-4-4-4-4-4-4-4-4-||
A|-6-6-6-6-6-6-6-6-|-6-6-6-6-6-6-6-6-|-2-2-2-2-2-2-2-2-|-2-2-2-2-2-2-2-2-|| 
E|-4-4-4-4-4-4-4-4-|-4-4-4-4-4-4-4-4-|-----------------|-----------------|*

                                      "....Burning Up, Well I'm Burning Up"





Guitar 2


   E                                   F#                 
E|-----------------|-----------------|-----------------|-----------------||
B|-12--12--12--12--|-12--12--12--12--|-11--11--11--11--|-11--11--11--11--||
G|---8---8---8---8-|---8---8---8---8-|---8---8---8---8-|---8---8---8---8-||
D|-----------------|-----------------|-----------------|-----------------||
A|-----------------|-----------------|-----------------|-----------------||
E|-----------------|-----------------|-----------------|-----------------||
   
   G#m                                 B                
E|-12--12--12--12--|-12--12--12--12--|-11--11--11--11--|-9---9---9---9---||
B|---9---9---9---9-|---9---9---9---9-|-----------------|-----------------||
G|-----------------|-----------------|---8---8---8---8-|---8---8---8---8-||
D|-----------------|-----------------|-----------------|-----------------||
A|-----------------|-----------------|-----------------|-----------------||
E|-----------------|-----------------|-----------------|-----------------||
 
                                    "....Falling Apart, Falling Apart"


   E                                   F#                 
E|-----------------|-----------------|-----------------|-----------------||
B|-12--12--12--12--|-12--12--12--12--|-11--11--11--11--|-11--11--11--11--||
G|---8---8---8---8-|---8---8---8---8-|---8---8---8---8-|---8---8---8---8-||
D|-----------------|-----------------|-----------------|-----------------||
A|-----------------|-----------------|-----------------|-----------------||
E|-----------------|-----------------|-----------------|-----------------||
   
   G#m                                 B                
E|-12--12--12--12--|-12--12--12--12--|-11--11--11--11--|-9---9---9---9---||
B|---9---9---9---9-|---9---9---9---9-|-----------------|-----------------||
G|-----------------|-----------------|---8---8---8---8-|---8---8---8---8-||
D|-----------------|-----------------|-----------------|-----------------||
A|-----------------|-----------------|-----------------|-----------------||
E|-----------------|-----------------|-----------------|-----------------||
 
                                    "....Falling Apart, Falling Apart"


   E                                   F#                 
E|-----------------|-----------------|-----------------|-----------------||
B|-12--12--12--12--|-12--12--12--12--|-11--11--11--11--|-11--11--11--11--||
G|---8---8---8---8-|---8---8---8---8-|---8---8---8---8-|---8---8---8---8-||
D|-----------------|-----------------|-----------------|-----------------||
A|-----------------|-----------------|-----------------|-----------------||
E|-----------------|-----------------|-----------------|-----------------||
   
   G#m                                 B                
E|-12--12--12--12--|-12--12--12--12--|-11--11--11--11--|-9---9---9---9---||
B|---9---9---9---9-|---9---9---9---9-|-----------------|-----------------||
G|-----------------|-----------------|---8---8---8---8-|---8---8---8---8-||
D|-----------------|-----------------|-----------------|-----------------||
A|-----------------|-----------------|-----------------|-----------------||
E|-----------------|-----------------|-----------------|-----------------||

                                      "....Burning Up, Well I'm Burning Up"








 --------
 Chorus 3
 --------


Guitar 1



   G#m                                 F#
E|-----------------|-----------------|-----------------|-----------------||
B|-----------------|-----------------|-----------------|-----------------||
G|-4---------------|-----------------|-3---------------|-----------------||
D|-6---------------|-----------------|-4---------------|-----------------||
A|-6---------------|-----------------|-4---------------|-----------------|| 
E|-4---------------|-----------------|-2---------------|-----------------||

   B                                   E                 F#
E|-----------------|-----------------|-----------------|-----------------||
B|-----------------|-----------------|-----------------|-----------------||
G|-4---------------|-----------------|-----------------|-----------------||
D|-4---------------|-----------------|-2---------------|-4*--------------||
A|-2---------------|-----------------|-2---------------|-4*--------------|| 
E|-----------------|-----------------|-0---------------|-2*--------------||

   G#m                                 F#
E|-----------------|-----------------|-----------------|-----------------||
B|-----------------|-----------------|-----------------|-----------------||
G|-----------------|-----------------|-----------------|-----------------||
D|-6-6-6-6-6-6-6-6-|-6-6-6-6-6-6-6-6-|-4-4-4-4-4-4-4-4-|-4-4-4-4-4-4-4-4-||
A|-6-6-6-6-6-6-6-6-|-6-6-6-6-6-6-6-6-|-4-4-4-4-4-4-4-4-|-4-4-4-4-4-4-4-4-||
E|-4-4-4-4-4-4-4-4-|-4-4-4-4-4-4-4-4-|-2-2-2-2-2-2-2-2-|-2-2-2-2-2-2-2-2-||

    B                                   E                F#
E|-----------------|-----------------|-----------------|-----------------||
B|-----------------|-----------------|-----------------|-----------------||
G|-4-4-4-4-4-4-4-4-|-4-4-4-4-4-4-4-4-|-----------------|-----------------||
D|-4-4-4-4-4-4-4-4-|-4-4-4-4-4-4-4-4-|-2-2-2-2-2-2-2-2-|-4-4-4-4-4-4-4-4-||
A|-2-2-2-2-2-2-2-2-|-2-2-2-2-2-2-2-2-|-2-2-2-2-2-2-2-2-|-4-4-4-4-4-4-4-4-|| 
E|-----------------|-----------------|-0-0-0-0-0-0-0-0-|-2-2-2-2-2-2-2-2-||



Guitar 2


   G#m                                 F#
E|-----------------|-----------------|-----------------|-----------------||
B|-----------------|-----------------|-----------------|-----------------||
G|-4---------------|-----------------|-3---------------|-----------------||
D|-6---------------|-----------------|-4---------------|-----------------||
A|-6---------------|-----------------|-4---------------|-----------------|| 
E|-4---------------|-----------------|-2---------------|-----------------||

   B                                   E                 F#
E|-----------------|-----------------|-----------------|-----------------||
B|-----------------|-----------------|-----------------|-----------------||
G|-4---------------|-----------------|-----------------|-----------------||
D|-4---------------|-----------------|-2---------------|-4*--------------||
A|-2---------------|-----------------|-2---------------|-4*--------------|| 
E|-----------------|-----------------|-0---------------|-2*--------------||

                                                                      
                     
   G#m                                 F#
E|-----------------|-----------------|-----------------|-----------------||
B|-4-4-4-4-4-4-4-4-|-4-4-4-4-4-4-4-4-|-7-7-7-7-7-7-7-7-|-7-7-7-7-7-7-7-7-||
G|-4-4-4-4-4-4-4-4-|-4-4-4-4-4-4-4-4-|-6-6-6-6-6-6-6-6-|-6-6-6-6-6-6-6-6-||
D|-6-6-6-6-6-6-6-6-|-6-6-6-6-6-6-6-6-|-8-8-8-8-8-8-8-8-|-8-8-8-8-8-8-8-8-||
A|-----------------|-----------------|-----------------|-----------------||
E|-----------------|-----------------|-----------------|-----------------||

   B                                   E                 F#
E|-----------------|-----------------|-----------------|-----------------||
B|-7-7-7-7-7-7-7-7-|-7-7-7-7-7-7-7-7-|-----------------|-----------------||
G|-8-8-8-8-8-8-8-8-|-8-8-8-8-8-8-8-8-|-----------------|-----------------||
D|-9-9-9-9-9-9-9-9-|-9-9-9-9-9-9-9-9-|-2-2-2-2-2-2-2-2-|-4-4-4-4-4-4-4-4-||
A|-----------------|-----------------|-2-2-2-2-2-2-2-2-|-4-4-4-4-4-4-4-4-|| 
E|-----------------|-----------------|-0-0-0-0-0-0-0-0-|-2-2-2-2-2-2-2-2-||





 -------
 (OUTRO) 2
 -------

Guitar 1 

   G#m               F#                E                 F#
E|-----------------|-----------------|-----------------|-----------------||
B|-----------------|-----------------|-----------------|-----------------||
G|-4-4---4-4---4---|---3---3-3-3-3---|-1-1---1-1---1---|---3---3-3-3-3---||
D|-6-6---6-6---6---|---4---4-4-4-4---|-2-2---2-2---2---|---4---4-4-4-4---||
A|-6-6---6-6---6---|---4---4-4-4-4---|-2-2---2-2---2---|---4---4-4-4-4---||
E|-4-4---4-4---4---|---2---2-2-2-2---|-0-0---0-0---0---|---2---4-4-4-4---||


E|-----------------|-----------------|-----------------|-----------------||
B|-----------------|-----------------|-----------------|-----------------||
G|-4-4---4-4---4---|---3---3-3-3-3---|-1-1---1-1---1---|---3---3-3-3-3---||
D|-6-6---6-6---6---|---4---4-4-4-4---|-2-2---2-2---2---|---4---4-4-4-4---||
A|-6-6---6-6---6---|---4---4-4-4-4---|-2-2---2-2---2---|---4---4-4-4-4---||
E|-4-4---4-4---4---|---2---2-2-2-2---|-0-0---0-0---0---|---2---4-4-4-4---||

E|-----------------|-----------------|-----------------|-----------------||
B|-----------------|-----------------|-----------------|-----------------||
G|-4-4---4-4---4---|---3---3-3-3-3---|-1-1---1-1---1---|---3---3-3-3-3---||
D|-6-6---6-6---6---|---4---4-4-4-4---|-2-2---2-2---2---|---4---4-4-4-4---||
A|-6-6---6-6---6---|---4---4-4-4-4---|-2-2---2-2---2---|---4---4-4-4-4---||
E|-4-4---4-4---4---|---2---2-2-2-2---|-0-0---0-0---0---|---2---4-4-4-4---||


E|-----------------|-----------------|-----------------|-----------------||
B|-----------------|-----------------|-----------------|-----------------||
G|-4-4---4-4---4---|---3---3-3-3-3---|-1-1---1-1---1---|---3---3-3-3-3---||
D|-6-6---6-6---6---|---4---4-4-4-4---|-2-2---2-2---2---|---4---4-4-4-4---||
A|-6-6---6-6---6---|---4---4-4-4-4---|-2-2---2-2---2---|---4---4-4-4-4---||
E|-4-4---4-4---4---|---2---2-2-2-2---|-0-0---0-0---0---|---2---4-4-4-4---||


  G#m
E|-----------------||
B|-----------------||
G|-4---------------||
D|-6---------------||
A|-6---------------||
E|-4---------------||




Guitar 2 


   G#m               F#                E                 F#
E|-----------------|-----------------|-----------------|-9---9-----------||
B|-12--12--12--12--|-11--11--11--11--|-9---9---9---9---|---------11--11--||
G|---8---8---8---8-|---8---8---8---8-|---8---8---8---8-|---8---8---8---8-||
D|-----------------|-----------------|-----------------|-----------------||
A|-----------------|-----------------|-----------------|-----------------||
E|-----------------|-----------------|-----------------|-----------------||
  
  
E|-----------------|-----------------|-----------------|-9---9-----------||
B|-12--12--12--12--|-11--11--11--11--|-9---9---9---9---|---------11--11--||
G|---8---8---8---8-|---8---8---8---8-|---8---8---8---8-|---8---8---8---8-||
D|-----------------|-----------------|-----------------|-----------------||
A|-----------------|-----------------|-----------------|-----------------||
E|-----------------|-----------------|-----------------|-----------------||
 
E|-----------------|-----------------|-----------------|-9---9-----------||
B|-12--12--12--12--|-11--11--11--11--|-9---9---9---9---|---------11--11--||
G|---8---8---8---8-|---8---8---8---8-|---8---8---8---8-|---8---8---8---8-||
D|-----------------|-----------------|-----------------|-----------------||
A|-----------------|-----------------|-----------------|-----------------||
E|-----------------|-----------------|-----------------|-----------------||
  
  
E|-----------------|-----------------|-----------------|-9---9-----------||
B|-12--12--12--12--|-11--11--11--11--|-9---9---9---9---|---------11--11--||
G|---8---8---8---8-|---8---8---8---8-|---8---8---8---8-|---8---8---8---8-||
D|-----------------|-----------------|-----------------|-----------------||
A|-----------------|-----------------|-----------------|-----------------||
E|-----------------|-----------------|-----------------|-----------------||



  G#m
E|-----------------||
B|-----------------||
G|-4---------------||
D|-6---------------||
A|-6---------------||
E|-4---------------||



Finished.
This is how it is on the track, it would be much easier to play everything
up one fret (into the key of C) which is what they play live.


Structure

Intro**
Verse 1
Chorus 1
Verse 2
Pre-Chorus
Chorus 2
Intro (Bridge)**
Pre-Chorus
Chorus 3
Outro**





__________________________________________________________________________

-------------------(IGNORE)----------------------
how the lead works 

    (D#)  (D#)   (D#)     |
D#   C#    B      C#      | E   D#  F#  B     G#
B    A#    G#     A#      | C#  B   D#  G#    E
G#   F#    E      F#      | A#  G#  B   E     C#

G#m  F#6 D#dom7  F#6              B/G#m
--------------------------------------------------
__________________________________________________________________________

            
            
Suggest correction
Creating personal tab
Creating personal tab
You can edit any tab online and save it as your Personal.

You can edit, replace or remove any tab part or add personal notes – all changes will be seen only by you.

Personal tabs can be accessed anytime from any device, even offline.
Learn more »
comments
print report bad tab
guest
You may want to rate the tab now too:
select rating
Wanna post a correction for this tab? Suggest correction