Oops, an error
Loading. Please wait.

Breaking And Entering tab

version 3
version 3

Interactive

10,704 views 3 this week
no commentswrite comment
1 2 3 4 5
x 4
add to favorites
×
Save as Personal and add changes to this tab that will be seen only by you. Learn more ›
×
You can save this tab as Personal to edit and correct it or add notes. All changes will be seen only by you. Learn more »
launch autoscroll
font size
0
reset
how to read this tab
guitar tuner
edit
Autoscroll
slow
fast
+/-
esc
set tempo
stop
Tonight Alive - Breaking and Entering

Drop C# tuning. There whole new album is in this tuning :P (low to high)
C#G#C#F#A#D#

INTRO

DISTORTION

(WHAKAIO)
GUITAR 1

|-8p0-8p0-8p0-8p0|-7p0-7p0-7p0-7p0|-5p0-5p0-5p0-5p0|-10p0-10p0-7p0-7p0|
|----------------|----------------|----------------|------------------|
|----------------|----------------|----------------|------------------|X2
|----------------|----------------|----------------|------------------|
|----------------|----------------|----------------|------------------|
|----------------|----------------|----------------|------------------|

(JAKE)
GUITAR 2

|----------------|----------------|----------------|----------------|
|----------------|----------------|----------------|----------------|
|----------------|----------------|----------------|----------------|
|-7-7-7-7-7-7-7-7|-5-5-5-5-5-5-5-5|-3-3-3-3-3-3-3-3|-5-5-5-5-5-5-5-5|X2
|-7-7-7-7-7-7-7-7|-5-5-5-5-5-5-5-5|-3-3-3-3-3-3-3-3|-5-5-5-5-5-5-5-5|
|-7-7-7-7-7-7-7-7|-5-5-5-5-5-5-5-5|-3-3-3-3-3-3-3-3|-5-5-5-5-5-5-5-5|

Verse 1:

CLEAN

GUITAR 1

|-8--------------8---|-----------8--------|-7-----------7--|---------7------|
|---10---10---10---10|---10---10---10---10|---8---8---8---8|---8---8---8---8|
|------9----9--------|-9----9---------9---|-----9---9------|-9---9-------9--|
|--------------------|--------------------|----------------|----------------|
|--------------------|--------------------|----------------|----------------|
|--------------------|--------------------|----------------|----------------|


|-5-----------5--|---------5------|-7-----------7--|---------7------|
|---6---6---6---6|---6---6---6---6|---8---8---8---8|---8---8---8---8|
|-----7---7------|-7---7-------7--|-----9---9------|-9---9-------9--|
|----------------|----------------|----------------|----------------| x2
|----------------|----------------|----------------|----------------|
|----------------|----------------|----------------|----------------|



GUITAR 2

|-12--12--12--12--|12--12--12--12--|10--10--10--10--|10--10--10--10---|
|---10--10--10--10|--10--10--10--10|--12--12--12--12|--12--12--12--12-|
|-----------------|----------------|----------------|-----------------|
|-----------------|----------------|----------------|-----------------|
|-----------------|----------------|----------------|-----------------|
|-----------------|----------------|----------------|-----------------|
                                                                    
                                                                         X2
|-13--13--13--13--|13--13--13--13--|10--10--10--10--|10--10--10--10---|
|---10--10--10--10|--10--10--10--10|--12--12--12--12|--12--12--12--12-|
|-----------------|----------------|----------------|-----------------|
|-----------------|----------------|----------------|-----------------|
|-----------------|----------------|----------------|-----------------|
|-----------------|----------------|----------------|-----------------|

BOTH GUITARS

|-----|
|-----|
|5~-4~|
|3~-2~|
|3~-2~|
|3~-2~|

PRE-CHORUS

DISTORTION

GUITAR 1

|-----------------|-----------------|-----------------|-----------------|
|-----------------|-----------------|-----------------|-----------------|
|-1414141414141414|-1414141414141414|-1616161616161616|-1616161616161616|
|--x-x-x-x-x-x-x-x|--x-x-x-x-x-x-x-x|--x-x-x-x-x-x-x-x|--x-x-x-x-x-x-x-x|
|-1212121212121212|-1212121212121212|-1414141414141414|-1414141414141414|
|-----------------|-----------------|-----------------|-----------------|



|-----------------|-----------------|-----------------|-----------------|
|-----------------|-----------------|-----------------|-----------------|
|-1717171717171717|-1717171717171717|-1010101010101010|-1212121212------|
|--x-x-x-x-x-x-x-x|--x-x-x-x-x-x-x-x|--x-x-x-x-x-x-x-x|--x-x-x-x-x------|
|-1515151515151515|-1515151515151515|--8-8-8-8-8-8-8-8|-1010101010------|
|-----------------|-----------------|-----------------|-----------------|
                                       . . . . . . . .   . . . . .
                                           = Palm mute




GUITAR 2

|-----------------|-----------------|-----------------|-----------------|
|-----------------|-----------------|-----------------|-----------------|
|-----------------|-----------------|-----------------|-----------------|
|-7-7-----------7-|---7-7-----7-7---|-5-5-----------5-|---5-5-----5-5---|
|-7-7-----------7-|---7-7-----7-7---|-5-5-----------5-|---5-5-----5-5---|
|-7-7-----------7-|---7-7-----7-7---|-5-5-----------5-|---5-5-----5-5---|


or go up to 10.
|-----------------|-----------------|-----------------|-----------------|
|-----------------|-----------------|-----------------|-----------------|
|-5-5-----------5-|---5-5-----5-5---|-----------------|-----------------|
|-5-5-----------5-|---5-5-----5-5---|-3-3-3-3-3-3-3-3-|-5-5-5-5-5-------|
|-3-3-----------3-|---3-3-----3-3---|-3-3-3-3-3-3-3-3-|-5-5-5-5-5-------|
|-----------------|-----------------|-3-3-3-3-3-3-3-3-|-5-5-5-5-5-------|
                                      . . . . . . . .   . . . . 


CHORUS 1

DISTORTION

GUITAR 1

|-----------------|-----------------|-----------------|-----------------|
|-----------------|-----------------|-----------------|-----------------|
|-1414141414141414|-1414141414141414|-1616161616161616|-1616161616161616|
|--x-x-x-x-x-x-x-x|--x-x-x-x-x-x-x-x|--x-x-x-x-x-x-x-x|--x-x-x-x-x-x-x-x|
|-1212121212121212|-1212121212121212|-1414141414141414|-1414141414141414|
|-----------------|-----------------|-----------------|-----------------|



|-----------------|-----------------|-----------------|-----------------|
|-----------------|-----------------|-----------------|-----------------|
|-1717171717171717|-1717171717171717|-1010101010101010|-1010101010101010|
|--x-x-x-x-x-x-x-x|--x-x-x-x-x-x-x-x|--x-x-x-x-x-x-x-x|--x-x-x-x-x-x-x-x|
|-1515151515151515|-1515151515151515|--8-8-8-8-8-8-8-8|--8-8-8-8-8-8-8-8|
|-----------------|-----------------|-----------------|-----------------|



GUITAR 2

|----------------|----------------|----------------|----------------|
|----------------|----------------|----------------|----------------|
|----------------|----------------|----------------|----------------|
|-7-7-7-7-7-7-7-7|-7-7-7-7-7-7-7-7|-5-5-5-5-5-5-5-5|-5-5-5-5-5-5-5-5|
|-7-7-7-7-7-7-7-7|-7-7-7-7-7-7-7-7|-5-5-5-5-5-5-5-5|-5-5-5-5-5-5-5-5|
|-7-7-7-7-7-7-7-7|-7-7-7-7-7-7-7-7|-5-5-5-5-5-5-5-5|-5-5-5-5-5-5-5-5|


or go to 10
|----------------|----------------|----------------|----------------|
|----------------|----------------|----------------|----------------|
|-5-5-5-5-5-5-5-5|-5-5-5-5-5-5-5-5|----------------|----------------|
|-5-5-5-5-5-5-5-5|-5-5-5-5-5-5-5-5|-3-3-3-3-3-3-3-3|-3-3-3-3-3-3-3-3|
|-3-3-3-3-3-3-3-3|-3-3-3-3-3-3-3-3|-3-3-3-3-3-3-3-3|-3-3-3-3-3-3-3-3|
|----------------|----------------|-3-3-3-3-3-3-3-3|-3-3-3-3-3-3-3-3|


Verse 2

GUITAR 1

CLEAN

|-8--------------8---|-----------8--------|-7-----------7--|---------7------|
|---10---10---10---10|---10---10---10---10|---8---8---8---8|---8---8---8---8|
|------9----9--------|-9----9---------9---|-----9---9------|-9---9-------9--|
|--------------------|--------------------|----------------|----------------|
|--------------------|--------------------|----------------|----------------|
|--------------------|--------------------|----------------|----------------|


|-5-----------5--|---------5------|-7-----------7--|---------7------|
|---6---6---6---6|---6---6---6---6|---8---8---8---8|---8---8---8---8|
|-----7---7------|-7---7-------7--|-----9---9------|-9---9-------9--|
|----------------|----------------|----------------|----------------| x2
|----------------|----------------|----------------|----------------|
|----------------|----------------|----------------|----------------|



GUITAR 2

|-12--12--12--12--|12--12--12--12--|10--10--10--10--|10--10--10--10---|
|---10--10--10--10|--10--10--10--10|--12--12--12--12|--12--12--12--12-|
|-----------------|----------------|----------------|-----------------|
|-----------------|----------------|----------------|-----------------|
|-----------------|----------------|----------------|-----------------|
|-----------------|----------------|----------------|-----------------|


|-13--13--13--13--|13--13--13--13--|10--10--10--10--|10--10--10--10---|
|---10--10--10--10|--10--10--10--10|--12--12--12--12|--12--12--12--12-|
|-----------------|----------------|----------------|-----------------|
|-----------------|----------------|----------------|-----------------|
|-----------------|----------------|----------------|-----------------|
|-----------------|----------------|----------------|-----------------|



BOTH GUITARS

DISTORTION

|----------------|----------------|----------------|----------------|
|----------------|----------------|----------------|----------------|
|----------------|----------------|----------------|----------------|
|-7-7-7-7-7-7-7-7|-7-7-7-7-7-7-7-7|-5-5-5-5-5-5-5-5|-5-5-5-5-5-5-5-5|
|-7-7-7-7-7-7-7-7|-7-7-7-7-7-7-7-7|-5-5-5-5-5-5-5-5|-5-5-5-5-5-5-5-5|
|-7-7-7-7-7-7-7-7|-7-7-7-7-7-7-7-7|-5-5-5-5-5-5-5-5|-5-5-5-5-5-5-5-5|
  . . . . . . . .  . . . . . . . .  . . . . . . . .  . . . . . . . .

*=palm mute

|----------------|----------------|----------------|----------------|
|----------------|----------------|----------------|----------------|
|----------------|----------------|----------------|----------------|
|-0-0-0-0-0-0-0-0|-0-0-0-0-0-0-0-0|-5-5-5-5-5-5-5-5|-5-5-5-5-5-5-5-5|
|-0-0-0-0-0-0-0-0|-0-0-0-0-0-0-0-0|-5-5-5-5-5-5-5-5|-5-5-5-5-5-5-5-5|
|-0-0-0-0-0-0-0-0|-0-0-0-0-0-0-0-0|-5-5-5-5-5-5-5-5|-5-5-5-5-5-5-5-5|
  . . . . . . . .  . . . . . . . .  . . . . . . . .  . . . . . . . .


PRE-CHORUS

DISTORTION

GUITAR 1

|-8-0-8-0-8-0-8-0|-8-0-8-0-8-0-8-0|-7-0-7-0-7-0-7-0|-7-0-7-0-7-0-7-0|
|----------------|----------------|----------------|----------------|
|----------------|----------------|----------------|----------------|
|----------------|----------------|----------------|----------------|
|----------------|----------------|----------------|----------------|
|----------------|----------------|----------------|----------------|
  . . . . . . . .  . . . . . . . .  . . . . . . . .  . . . . . . . .


|-12-0-12-0-12-0-12-0|-12-0-12-0-12-0-12-0|-8-0-8-0-8-0-8-0|-7-0-7-0-7------|
|--------------------|--------------------|----------------|----------------|
|--------------------|--------------------|----------------|----------------|
|--------------------|--------------------|----------------|----------------|
|--------------------|--------------------|----------------|----------------|
|--------------------|--------------------|----------------|----------------|
  .  .  . .  . .  . .  .  .  .  .  .  .  .  . . . . . . . .  . . . . .


GUITAR 2

|-12-0-12-0-12-0-12-0|-12-0-12-0-12-0-12-0|-10-0-10-0-10-0-10-0|
|--------------------|--------------------|--------------------|
|--------------------|--------------------|--------------------|
|--------------------|--------------------|--------------------|
|--------------------|--------------------|--------------------|
|--------------------|--------------------|--------------------|
  .  .  . .  . .  . .  .  .  . .  . .  . .   . .  . .  . .  . .


|-10-0-10-0-10-0-10-0|-5-0-5-0-5-0-5-0|-5-0-5-0-5-0-5-0|-12-0-12-0-12-0-12-0|
|--------------------|----------------|----------------|--------------------|
|--------------------|----------------|----------------|--------------------|
|--------------------|----------------|----------------|--------------------|
|--------------------|----------------|----------------|--------------------|
|--------------------|----------------|----------------|--------------------|
  .  .  . .  . .  . .  . . . . . . . .  . . . . . . . .  .  .  . .  . .  . .

|-10-0-10-0-10-------|
|--------------------|
|--------------------|
|--------------------|
|--------------------|
|--------------------|
  .  .  . .  .



CHORUS - SAME AS LAST ONE :)


INTRO THINGY AGAIN

GUITAR 1

|-8p0-8p0-8p0-8p0|-7p0-7p0-7p0-7p0|-5p0-5p0-5p0-5p0|-10p0-10p0-7p0-7p0|
|----------------|----------------|----------------|------------------|
|----------------|----------------|----------------|------------------|X2
|----------------|----------------|----------------|------------------|
|----------------|----------------|----------------|------------------|
|----------------|----------------|----------------|------------------|



GUITAR 2

|-----------------|------------------|----------------|------------------|
|-----------------|------------------|----------------|------------------|
|-----------------|------------------|----------------|------------------|
|-7-7---7-7---7---|--5-5---5-5-5-5---|-3-3---3-3---3--|--5-5---5-5-5-5---| X2
|-7-7---7-7---7---|--5-5---5-5-5-5---|-3-3---3-3---3--|--5-5---5-5-5-5---|
|-7-7---7-7---7---|--5-5---5-5-5-5---|-3-3---3-3---3--|--5-5---5-5-5-5---|



BRIDGE

GUITAR 1

|-8-0-8-0-8-0-8-0|-8-0-8-0-8-0-8-0|-7-0-7-0-7-0-7-0|-7-0-7-0-7-0-7-0|
|----------------|----------------|----------------|----------------|
|----------------|----------------|----------------|----------------|
|----------------|----------------|----------------|----------------|
|----------------|----------------|----------------|----------------|
|----------------|----------------|----------------|----------------|
  . . . . . . . .  . . . . . . . .  . . . . . . . .  . . . . . . . .  

WHOLE THING X3

|-12-0-12-0-12-0-12-0|-12-0-12-0-12-0-12-0|-8-0-8-0-8-0-8-0|-7-0-7-0-7-0-7-0|
|--------------------|--------------------|----------------|----------------|
|--------------------|--------------------|----------------|----------------|
|--------------------|--------------------|----------------|----------------|
|--------------------|--------------------|----------------|----------------|
|--------------------|--------------------|----------------|----------------|
  .  .  . .  . .  . .  .  .  . .  . .  . .  . . . . . . . .  . . . . . . . .


GUITAR 2

|-12-0-12-0-12-0-12-0|-12-0-12-0-12-0-12-0|-10-0-10-0-10-0-10-0|
|--------------------|--------------------|--------------------|
|--------------------|--------------------|--------------------|
|--------------------|--------------------|--------------------|
|--------------------|--------------------|--------------------|
|--------------------|--------------------|--------------------|
  .  .  . .  . .  . .   . .  . .  . .  . .   . .  . .  . .  . .


|-10-0-10-0-10-0-10-0|-5-0-5-0-5-0-5-0|-5-0-5-0-5-0-5-0|-12-0-12-0-12-0-12-0|
|--------------------|----------------|----------------|--------------------|
|--------------------|----------------|----------------|--------------------|
|--------------------|----------------|----------------|--------------------|
|--------------------|----------------|----------------|--------------------|
|--------------------|----------------|----------------|--------------------|
  .  .  . .  . .  . .  . . . . . . . .  . . . . . . . .   . .  . .  . .  . .


|-10-0-10-0-10-------|
|--------------------|
|--------------------|
|--------------------| WHOLE THING X3
|--------------------|
|--------------------|
  .  .  . .  .



CHORUS

CLEAN

GUITAR 1

|---|---|---|---|
|---|---|---|---|
|---|---|-5~|---|
|-7~|-5~|-5~|-3~|
|-7~|-5~|-3~|-3~|
|-7~|-5~|---|-3~|
             slowly
             get
             distortion




CHORUS - X1


OUTRO

DISTORTION

GUITAR 1

|-8p0-8p0-8p0-8p0|-7p0-7p0-7p0-7p0|-5p0-5p0-5p0-5p0|-10p0-10p0-7p0-7p0|
|----------------|----------------|----------------|------------------|
|----------------|----------------|----------------|------------------|X4
|----------------|----------------|----------------|------------------|
|----------------|----------------|----------------|------------------|
|----------------|----------------|----------------|------------------|


|-5~| LET RING
|---|
|---|
|---|
|---|
|---|


GUITAR 2

|-----------------|------------------|----------------|------------------|
|-----------------|------------------|----------------|------------------|
|-----------------|------------------|----------------|------------------|
|-7-7---7-7---7---|--5-5---5-5-5-5---|-3-3---3-3---3--|--5-5---5-5-5-5---| X4
|-7-7---7-7---7---|--5-5---5-5-5-5---|-3-3---3-3---3--|--5-5---5-5-5-5---|
|-7-7---7-7---7---|--5-5---5-5-5-5---|-3-3---3-3---3--|--5-5---5-5-5-5---|


|---|
|---|
|---|
|-7~|LET RING
|-7~|
|-7~|

            
            
Suggest correction
Creating personal tab
Creating personal tab
You can edit any tab online and save it as your Personal.

You can edit, replace or remove any tab part or add personal notes – all changes will be seen only by you.

Personal tabs can be accessed anytime from any device, even offline.
Learn more »
comments
print report bad tab
guest
You may want to rate the tab now too:
select rating
Wanna post a correction for this tab? Suggest correction