Oops, an error
Loading. Please wait.

How Does It Feel tab

2,527 views 3 this week
no commentswrite comment
1 2 3 4 5
x 8
add to favorites
×
Save as Personal and add changes to this tab that will be seen only by you. Learn more ›
×
You can save this tab as Personal to edit and correct it or add notes. All changes will be seen only by you. Learn more »
launch autoscroll
font size
0
reset
how to read this tab
guitar tuner
edit
Autoscroll
slow
fast
+/-
esc
set tempo
stop
How Does It Feel? - Tonight Alive
Tabbed by: txnightalive11 (twitter:blxshhh IG:blxshh)
E-Mail: reiltinlois@icloud.com

This is not perfect at all but this is how I play it, also I know Tonight Alive's songs 
are usually played in drop C but for me it's easier like this.
Please email me or dm on twitter or insta with any improvements or suggestions! By the 
way, this is my first tab! Don't judge me.

Tuning: Drop D

[Intro]
e|---------------------------------------------------------------|
B|---------------------------------------------------------------|
G|--77-77-77-777-9/10-----77-77-1212---1010\9/10-----------------|
D|--xx-xx-xx-xxx-xxx------xx-xx-xxxx----x-x-x--------------------|
A|--55-55-55-555-7/8------55-55-1010----8-8\7/8------------------|
D|---------------------------------------------------------------|

e|---------------------------------------------------------------|
B|---------------------------------------------------------------|
G|---------------------------------------------------------------|
D|--8-------5--------0---------3---------------------------------|
A|--8-(X8)--5-(X8)---0-(X8)----3-(X8)--------(X2)----------------|
D|--8-------5--------0---------3---------------------------------|


[Verse]
(I prefer to palm mute the verses)
e|---------------------------------------------------------------|
B|---------------------------------------------------------------|
G|---------------------------------------------------------------|
D|--00---------33---------88---------55--------------------------|
A|--00--(x4)---33--(x4)---88--(x4)---55--(x4)--------------------|
D|--00---------33---------88---------55--------------------------|


[Pre-Chorus]
(LET ME GO)
e|---------------------------------------------------------------|
B|---------------------------------------------------------------|
G|---------------------------------------------------------------|
D|--88--5--------------------------------------------------------|
A|--88--5--------------------------------------------------------|
D|--88--5--------------------------------------------------------|


[Chorus]
(SAME AS CHORUS BUT DIFFERENT STRUMMING PATTERN;SIMPLE ENOUGH TO FIGURE OUT.)
e|---------------------------------------------------------------|
B|---------------------------------------------------------------|
G|---------------------------------------------------------------|
D|--0000--------3333---------8888--------5555h7------------------|
A|--0000--(X2)--3333--(X2)---8888--(X2)--5555h7(X2)--------------|
D|--0000--------3333---------8888--------5555h7------------------|

REPEAT VERSE TO CHORUS AGAIN
BRIDGE IS SIMILAR JUST VERSE A LITTLE SLOWER
OUTRO IS VERSE AND THEN A PIANO SOLO


MY OWN PERSONAL 'PIANO SOLO' AFTER OUTRO
e|-------------------------------------------------------------------------------| 
B|----------------5h6----------------5h6----------------5h6---6p5-6p5-6p5-6p5----|
G|-5h7-5h7-5h7-5h7----5h7-5h7-5h7-5h7----5h7-5h7-5h7-5h7----------------------5h7|
D|-------------------------------------------------------------------------------|
A|-------------------------------------------------------------------------------|
D|-------------------------------------------------------------------------------|
Any complications, feel free to hmu.



************************************

| /  Slide up
| \  Slide down
| x  Dead note
| h  Hammer-on
| p  Pull-off

************************************

            
            
Suggest correction
Creating personal tab
Creating personal tab
You can edit any tab online and save it as your Personal.

You can edit, replace or remove any tab part or add personal notes – all changes will be seen only by you.

Personal tabs can be accessed anytime from any device, even offline.
Learn more »
comments
print report bad tab
guest
You may want to rate the tab now too:
select rating
Wanna post a correction for this tab? Suggest correction