Oops, an error
Loading. Please wait.

Human Interaction Acoustic tab

517 views 1 this week
no commentswrite comment
1 2 3 4 5
x 3
add to favorites
×
Save as Personal and add changes to this tab that will be seen only by you. Learn more ›
×
You can save this tab as Personal to edit and correct it or add notes. All changes will be seen only by you. Learn more »
launch autoscroll
font size
0
reset
how to read this tab
guitar tuner
edit
Autoscroll
slow
fast
+/-
esc
set tempo
stop
Author
-------------------------------------------------------------------------------
                             Tonight Alive - Human Interaction
-------------------------------------------------------------------------------
Tabbed by:Andy Nguyen
E-mail:omgitsandy@yahoo.com

Tuning:this song is in Drop C.

     Pretty easy song to play and I thinks this how whakaio taahi play on the performance
acoustic live.i learn it by watch this video 30 time.... https://www.youtube.com/watch?v=7mdTwZhBlX8
is better you play with the music because you will get the rhythm to it. sorry my first 
tabs I made you might
not understand stand, this is the remake of the tabs.


Intro

D|--------------------------------------------------------------------|
A|--------------------------------------------------------------------|
F|----7----7----7----7----7------9----6----6----6----6----6----2------|
C|------0----0----0----0----0-----------0----0----0----0----0---------|
G|--------------------------------------------------------------------|
C|--------0----0----0----0----0-----------0----0----0----0----0-------|

D|--------------------------------------------------------------------|
A|--------------------------------------------------------------------|
F|----7----7----7----7----7------9----6----6----6----6----6-----------|
C|------0----0----0----0----0-----------0----0----0----0----0---------|
G|--------------------------------------------------------------------|
C|--------0----0----0----0----0-----------0----0----0----0----0-------|


Verse 1

D|--------------------------------------------------------------------|
A|--------------------------------------------------------------------|
F|----7----7----7----7----7------9----6----6----6----6----6----2------|
C|------0----0----0----0----0-----------0----0----0----0----0---------|
G|--------------------------------------------------------------------|
C|--------0----0----0----0----0-----------0----0----0----0----0-------|

D|--------------------------------------------------------------------|
A|--------------------------------------------------------------------|
F|----7----7----7----7----7------9----6----6----6----6----6-----------|
C|------0----0----0----0----0-----------0----0----0----0----0---------|
G|--------------------------------------------------------------------|
C|--------0----0----0----0----0-----------0----0----0----0----0-------|

D|--------------------------------------------------------------------|
A|--------------------------------------------------------------------|
F|----7----7----7----7----7------9----6----6----6----6----6-----------|
C|------0----0----0----0----0-----------0----0----0----0----0---------|
G|--------------------------------------------------------------------|
C|--------5----5----5----5----5-----------5----5----5----5----5-------|

D|--------------------------------------------------------------------|
A|--------------------------------------------------------------------|
F|----7----7----7----7----7------9----6----6----6----6----6-----------|
C|------0----0----0----0----0-----------0----0----0----0----0---------|
G|--------------------------------------------------------------------|
C|--------5----5----5----5----5-----------5----5----5----5----5-------|

D|--------------------------------------------------------------------|
A|--------------------------------------------------------------------|
F|----7----7----7----7----7------9----6----6----6----6----6-----------|
C|------0----0----0----0----0-----------0----0----0----0----0---------|
G|--------------------------------------------------------------------|
C|--------0----0----0----0----0-----------0----0----0----0----0-------|

D|--------------------------------------------------------------------|
A|--------------------------------------------------------------------|
F|----7----7----7----7----7------9----6----6----6----6----6-----------|
C|------0----0----0----0----0-----------0----0----0----0----0---------|
G|--------------------------------------------------------------------|
C|--------5----5----5----5----5-----------5----5----5----5----5-------|

D|--------------------------------------------------------------------|
A|--------------------------------------------------------------------|
F|----7----7----7----7----7------9----6----6----6----6----6-----------|
C|------0----0----0----0----0-----------0----0----0----0----0---------|
G|--------------------------------------------------------------------|
C|--------5----5----5----5----5-----------5----5----5----5----5-------|

Chorus

D|---------------------------------------------------------------------------|
A|---------------------------------------------------------------------------|
F|--4--4--4--4--4--1--1--1--1--1--7--7--7--7--7--6--6--6--6--6---------------|
C|---------------------------------------------------------------------------|
G|--5--5--5--5--5--2--2--2--2--2--9--9--9--9--9--7--7--7--7--7---------------|
C|--5--5--5--5--5--2--2--2--2--2--9--9--9--9--9--7--7--7--7--7---------------|x3

                              (OR!) YOU DONT HAVE TO

D|---------------------------------------------------------------------------|
A|---------------------------------------------------------------------------|
F|--4--4--4--4--4--1--1--1--1--1--7--7--7--7--7--6--6--6--6--6---------------|
C|--5--5--5--5--5--2--2--2--2--2--9--9--9--9--9--7--7--7--7--7---------------|
G|--5--5--5--5--5--2--2--2--2--2--9--9--9--9--9--7--7--7--7--7---------------|
C|--5--5--5--5--5--2--2--2--2--2--9--9--9--9--9--7--7--7--7--7---------------|x3

Verse 2
D|--------------------------------------------------------------------|
A|--------------------------------------------------------------------|
F|----7----7----7----7----7------9----6----6----6----6----6----2------|
C|------0----0----0----0----0-----------0----0----0----0----0---------|
G|--------------------------------------------------------------------|
C|--------0----0----0----0----0-----------0----0----0----0----0-------|

D|--------------------------------------------------------------------|
A|--------------------------------------------------------------------|
F|----7----7----7----7----7------9----6----6----6----6----6-----------|
C|------0----0----0----0----0-----------0----0----0----0----0---------|
G|--------------------------------------------------------------------|
C|--------0----0----0----0----0-----------0----0----0----0----0-------|

D|--------------------------------------------------------------------|
A|--------------------------------------------------------------------|
F|----7----7----7----7----7------9----6----6----6----6----6-----------|
C|------0----0----0----0----0-----------0----0----0----0----0---------|
G|--------------------------------------------------------------------|
C|--------5----5----5----5----5-----------5----5----5----5----5-------|

D|--------------------------------------------------------------------|
A|--------------------------------------------------------------------|
F|----7----7----7----7----7------9----6----6----6----6----6-----------|
C|------0----0----0----0----0-----------0----0----0----0----0---------|
G|--------------------------------------------------------------------|
C|--------5----5----5----5----5-----------5----5----5----5----5-------|
Chorus

D|---------------------------------------------------------------------------|
A|---------------------------------------------------------------------------|
F|--4--4--4--4--4--1--1--1--1--1--7--7--7--7--7--6--6--6--6--6---------------|
C|---------------------------------------------------------------------------|
G|--5--5--5--5--5--2--2--2--2--2--9--9--9--9--9--7--7--7--7--7---------------|
C|--5--5--5--5--5--2--2--2--2--2--9--9--9--9--9--7--7--7--7--7---------------|x3

                              (OR!) YOU DONT HAVE TO

D|---------------------------------------------------------------------------|
A|---------------------------------------------------------------------------|
F|--4--4--4--4--4--1--1--1--1--1--7--7--7--7--7--6--6--6--6--6---------------|
C|--5--5--5--5--5--2--2--2--2--2--9--9--9--9--9--7--7--7--7--7---------------|
G|--5--5--5--5--5--2--2--2--2--2--9--9--9--9--9--7--7--7--7--7---------------|
C|--5--5--5--5--5--2--2--2--2--2--9--9--9--9--9--7--7--7--7--7---------------|x3

Bridge   (mute it)
D|---------------------------------------------------------------------------|
A|---------------------------------------------------------------------------|
F|--4--4--4--4--4--6--6--6--6--6--7--7--7--7--7--2--2--2--2--2---------------|
C|---------------------------------------------------------------------------|
G|--5--5--5--5--5--7--7--7--7--7--9--9--9--9--9--5--5--5--5--5---------------|
C|--5--5--5--5--5--7--7--7--7--7--9--9--9--9--9--4--4--4--4--4---------------|

D|---------------------------------------------------------------------------|
A|---------------------------------------------------------------------------|
F|--4--4--4--4--4--6--6--6--6--6--7--7--7--7--7--2--2--2--2--2--2--2--2--2--2|
C|---------------------------------------------------------------------------|
G|--5--5--5--5--5--7--7--7--7--7--9--9--9--9--9--5--5--5--5--5--5--5--5--5--5|
C|--5--5--5--5--5--7--7--7--7--7--9--9--9--9--9--4--4--4--4--4--4--4--4--4--4|

Chorus

D|---------------------------------------------------------------------------|
A|---------------------------------------------------------------------------|
F|--4--4--4--4--4--6--6--6--6--6--7--7--7--7--7--2--2--2--2--2---------------|
C|---------------------------------------------------------------------------|
G|--5--5--5--5--5--7--7--7--7--7--9--9--9--9--9--5--5--5--5--5---------------|
C|--5--5--5--5--5--7--7--7--7--7--9--9--9--9--9--4--4--4--4--4---------------|

D|---------------------------------------------------------------------------|
A|---------------------------------------------------------------------------|
F|--4--4--4--4--4--6--6--6--6--6--7--7--7--7--7--2--2--2--2--2---------------|
C|---------------------------------------------------------------------------|
G|--5--5--5--5--5--7--7--7--7--7--9--9--9--9--9--5--5--5--5--5---------------|
C|--5--5--5--5--5--7--7--7--7--7--9--9--9--9--9--4--4--4--4--4---------------|

D|---------------------------------------------------------------------------|
A|---------------------------------------------------------------------------|
F|--4----------------6--------------------7--------------------2-------------|
C|---------------------------------------------------------------------------|
G|--5----------------7--------------------9--------------------5-------------|
C|--5----------------7--------------------9--------------------4-------------|


************************************

| /   slide up
| \   slide down
| h   hammer-on
| p   pull-off
| ~   vibrato
| +   harmonic
| x   Mute note
| b   Bend
| pb  Pre-bend
| br  Bend release
| pbr Pre-bend release
| brb Bend release bend

************************************

            
            
Suggest correction
Creating personal tab
Creating personal tab
You can edit any tab online and save it as your Personal.

You can edit, replace or remove any tab part or add personal notes – all changes will be seen only by you.

Personal tabs can be accessed anytime from any device, even offline.
Learn more »
Give kudos to tab author, rate the tab!
1 2 3 4 5
comments
print report bad tab
guest
You may want to rate the tab now too:
select rating
Wanna post a correction for this tab? Suggest correction