Oops, an error
Loading. Please wait.

Let It Land Bass Tab

version 1
version 1

Whole song

Interactive

1,932 views 6 this week
1 commentread comment
1 2 3 4 5
please rate
add to favorites
launch autoscroll
font size
0
reset
guitar tuner
Autoscroll
slow
fast
+/-
esc
set tempo
stop
Help us to improve Ultimate-Guitar.com Take our survey!
×
Author
-------------------------------------------------------------------------------
                             Let it Land - Tonight Alive
-------------------------------------------------------------------------------
Tabbed by: Rodolfo G.
E-mail: Spaz644(a)gmail.com

Tuning: Standard: E A D G


[Intro]

G|-----------------------------------------------------------------|
D|-----------------------------------------------------------------|
A|-----------------------------------------------------------------|
E|-----------------------------------------------------------------|



[Verse]
   
G|-----------------------------------------------------------------|
D|-----------------------------------------------------------------|
A|-----------------------------------------------------------------|
E|-----------------------------------------------------------------|
.. know at all..


G|-----------------------------------------------------------------|
D|-----------------------------------------------------------------|
A|-----------------------------------------------------------------|
E|-----------------------------------------------------------------|
.. care at all?..


G|-----------------------------------------------------------------|
D|-----------------------------------------------------------------|
A|-4-4-4---------------------------6-6-6---------6-----------------|
E|-----------------------------------------------------------------|
.. know is something..


G|-----------------------------------------------------------------|
D|-----------------------------------------------------------------|
A|---------------------------------6-6-6-6-6-6-6-6-6-6-6-6-6-6-6-6-|
E|-1-1-1-----------------------------------------------------------|
.. line, and everything..



[Chorus]

G|-----------------------------------------------------------------|
D|-----------------------------------------------------------------|
A|---------------------------------6-6-6-6-6-6-6-6-6-6-6-6---------|
E|-4-4-4-4-4-4-4-4-4-4-4-4-4-4-4-4-------------------------4---3---|
.. sitting here, waiting..


G|-----------------------------------------------------------------|
D|-----------------------------------------------------------------|
A|---------------------------------4-4-4-4-4-4-4-4-4-4-4-4-4-4-4-4-|
E|-1-1-1-1-1-1-1-1-1-1-1-1-1-1-1-1---------------------------------|
.. never let it..


G|-----------------------------------------------------------------|
D|-----------------------------------------------------------------|
A|---------------------------------6-6-6-6-6-6-6-6-6-6-6-6---------|
E|-4-4-4-4-4-4-4-4-4-4-4-4-4-4-4-4-------------------------4---3---|
.. sitting here, waiting..


G|-----------------------------------------------------------------|
D|-----------------------------------------------------------------|
A|---------------------------------4-4-4-4-4-4-4-4-4-4-4-4-4-4-4-4-|
E|-1-1-1-1-1-1-1-1-1-1-1-1-1-1-1-1---------------------------------|
.. slipping right through..



[Break]

G|---------------------------------|
D|---------------------------------|
A|---------------------------------|
E|---------------------------------|
.. land.



[Verse 2]

G|-----------------------------------------------------------------|
D|-----------------------------------------------------------------|
A|-4-4-4-4-4-4-4-4-4-4-4-4-4-4-4-4-6-6-6-6-6-6-6-6-6-6-6-6-6-6-6-6-|
E|-----------------------------------------------------------------|
.. get off now..


G|-----------------------------------------------------------------|
D|-----------------------------------------------------------------|
A|---------------------------------6-6-6-6-6-6-6-6-6-6-6-6-6-6-6-6-|
E|-1-1-1-1-1-1-1-1-1-1-1-1-1-1-1-1---------------------------------|
.. come back down..


G|-----------------------------------------------------------------|
D|-----------------------------------------------------------------|
A|-4-4-4-4-4-4-4-4-4-4-4-4-4-4-4-4-6-6-6-6-6-6-6-6-6-6-6-6-6-6-6-6-|
E|-----------------------------------------------------------------|
.. know is just..


G|-----------------------------------------------------------------|
D|-----------------------------------------------------------------|
A|---------------------------------6-6-6-6-6-6-6-6-6---------------|
E|-1-1-1-1-1-1-1-1-1-1-1-1-1-1-1-1---------------------------------|
.. line, and everything..



[Chorus]

G|-----------------------------------------------------------------|
D|-----------------------------------------------------------------|
A|---------------------------------6-6-6-6-6-6-6-6-6-6-6-6---------|
E|-4-4-4-4-4-4-4-4-4-4-4-4-4-4-4-4-------------------------4---3---|
.. sitting here, waiting..


G|-----------------------------------------------------------------|
D|-----------------------------------------------------------------|
A|---------------------------------4-4-4-4-4-4-4-4-4-4-4-4-4-4-4-4-|
E|-1-1-1-1-1-1-1-1-1-1-1-1-1-1-1-1---------------------------------|
.. never let it..


G|-----------------------------------------------------------------|
D|-----------------------------------------------------------------|
A|---------------------------------6-6-6-6-6-6-6-6-6-6-6-6---------|
E|-4-4-4-4-4-4-4-4-4-4-4-4-4-4-4-4-------------------------4---3---|
.. sitting here, waiting..


G|-----------------------------------------------------------------|
D|-----------------------------------------------------------------|
A|---------------------------------4-4-4-4-4-4-4-4-4-4-4-4-4-------|
E|-1-1-1-1-1-1-1-1-1-1-1-1-1-1-1-1---------------------------------|
.. slipping right through..



[Bridge]

G|-----------------------------------------------------------------|
D|-----------------------------------------------------------------|
A|-4-4-4-4-4-4-4-4-4-4-4-4-4-4-4-4-6-6-6-6-6-6-6-6-6-6-6-6-6-6-6-6-|
E|-----------------------------------------------------------------|
.. land. So keep..


G|-----------------------------------------------------------------|
D|-----------------------------------------------------------------|
A|-----------------------------------------------------------------|
E|-1-1-1-1-1-1-1-1-1-1-1-1-1-1-1-1-4-4-4-4-4-4-4-4-4-4-4-4-4-4-4-4-|
.. hide it if..


G|-----------------------------------------------------------------|
D|-----------------------------------------------------------------|
A|-4-4-4-4-4---4-4-4---4---4-4-4-4-6-6-6-6-6---6-6-6---6---6-6-6-6-|
E|-----------------------------------------------------------------|
.. it don't matter..


G|-----------------------------------------------------------------|
D|-----------------------------------------------------------------|
A|---------------------------------6-6---6-6---6-6---6-6-6-6-6-6-6-|
E|-1-1---1-1---1-1---1-1---1-1-1-1---------------------------------|
.. I need to..



[Soft Chorus]

G|-----------------------------------------------------------------|
D|-----------------------------------------------------------------|
A|-----------------------------------------------------------------|
E|-4---------------------------------------------------------------|
.. sitting here, waiting..


G|-----------------------------------------------------------------|
D|-----------------------------------------------------------------|
A|---------------------------------6-6-6-6-6-6-6-6-6-6-6-6---------|
E|-----------------------------------------------------------------|
.. never let it..



[Chorus]

G|-----------------------------------------------------------------|
D|-----------------------------------------------------------------|
A|---------------------------------6-6-6-6-6-6-6-6-6-6-6-6---------|
E|-4-4-4-4-4-4-4-4-4-4-4-4-4-4-4-4-------------------------4---3---|
.. sitting here, waiting..


G|-----------------------------------------------------------------|
D|-----------------------------------------------------------------|
A|---------------------------------4-4-4-4-4-4-4-4-4-4-4-4-4-4-4-4-|
E|-1-1-1-1-1-1-1-1-1-1-1-1-1-1-1-1---------------------------------|
.. slipping right through..


G|-----------------------------------------------------------------|
D|-----------------------------------------------------------------|
A|---------------------------------6-6-6-6-6-6-6-6-6-6-6-6---------|
E|-4-4-4-4-4-4-4-4-4-4-4-4-4-4-4-4-------------------------4---3---|
.. land (Now it's..


G|-----------------------------------------------------------------|
D|-----------------------------------------------------------------|
A|---------------------------------4-4-4-4-4-4-4-4-4-4-4-4-4-4-4-4-|
E|-1-1-1-1-1-1-1-1-1-1-1-1-1-1-1-1---------------------------------|
..well I guess..


G|-----------------------------------------------------------------|
D|-----------------------------------------------------------------|
A|---------------------------------6-6-6-6-6-6-6-6-6-6-6-6---------|
E|-4-4-4-4-4-4-4-4-4-4-4-4-4-4-4-4-------------------------4---3---|
.. Land (Now it's..

G|-----------------------------------------------------------------|
D|-----------------------------------------------------------------|
A|---------------------------------4-4-4-4-4-4-4-4-4-4-4-4-4-4-4-4-|
E|-1-1-1-1-1-1-1-1-1-1-1-1-1-1-1-1---------------------------------|
..well I guess..



[Outro]

G|-----------------|
D|-----------------|
A|-----------------|
E|-4---------------|
..land. (oo oh)..


===============================================================================
Suggest correction
Give kudos to tab author, rate the tab!
1 2 3 4 5
comments
print report bad tab
1 comment total.
0 reply
theadampettigre 10 wrote on August 21 2015, 05:23 am

I've seen an interview with Whakaio saying they did the whole of WAYSSO? in drop C# so i would guess that this song is also in drop C# rather than standard tuning

guest
You may want to rate the tab now too:
select rating
Wanna post a correction for this tab? Suggest correction