Oops, an error
Loading. Please wait.

Little Lion Man bass

version 2
version 2

Whole song

Interactive

3,385 views 1 this week
no commentswrite comment
1 2 3 4 5
1 last vote to show rating
add to favorites
×
Save as Personal and add changes to this tab that will be seen only by you. Learn more ›
×
You can save this tab as Personal to edit and correct it or add notes. All changes will be seen only by you. Learn more »
launch autoscroll
font size
0
reset
guitar tuner
edit
Autoscroll
slow
fast
+/-
esc
set tempo
stop
Author
Difficulty
-------------------------------------------------------------------------------
                             Little Lion Man - Tonight Alive
-------------------------------------------------------------------------------

5 string standard version of the tab originally posted by christheazn
http://tabs.ultimate-guitar.com/t/tonight_alive/little_lion_man_btab.htm

His great cover of the song can be found at...
http://www.youtube.com/watch?v=NOhZkLVY_xM

Or visit his channel at...
http://www.youtube.com/user/chrisistheazn

Thank you for the original tab Chris!

For 4 string players, just play B string notes an octave up on the A string.. still sounds good



Verse 1, Pre-Chorus 1, Chorus 1

No bass

Starts at 0:44

G|------------------------------------------------------------------------|
D|---------------------------------------------------4-6-4-3--------------|
A|------------------------------------------------44---------4------------|
E|-------------------------------2-22-22-2-2-2-22-------------------------|
B|--4-44-44--4-4-4-4-44-44--4-4-4-----------------------------------------|

G|------------------------------------------------------------------------|
D|------------------------------------------------------------------------|
A|------------------------------------------------------------------------|
E|-------------------------------2-22-22-2-2-2-2-22-22--2-2-2-------------|
B|--4-44-44--4-4-4-4-44-44--4-4-4-----------------------------------------|


Verse 2

"The two lines below are the same riff you can play either one depending on your preference. 
I find that the first line sounds  better but the second one is easier." -christheazn

^Agreed

G|------------------------------------------------------------------------|
D|---8-6----6----------------------------4-6-4---4-6-8-6------------------|
A|-6-----9-----9-6-4-6-8-9-8-6-4-------4-------4---------9-8-9-8-6-4------|
E|-------------------------------6-4-2------------------------------------|
B|------------------------------------------------------------------------|

G|---3-1---1-----------------------------1-------1-3-1--------------------|
D|-1-----4---4-1---1-3-4-3-1-----------4---4---4-------4-3-4-3-1-3--------|
A|---------------4-----------4-1-----4-------4----------------------------|
E|-------------------------------4-2--------------------------------------|
B|------------------------------------------------------------------------|


Pre-Chorus

G|------------------------|
D|------------------------|
A|-4(16x)-2(16x)----------|
E|---------------2(32x)---|
B|------------------------|

G|-------------------------------|
D|-------------------------------|
A|-4(16x)-2(16x)-----------------|
E|---------------2(16x)2-2-2-2---|
B|-------------------------------|


Chorus 2

G|------------------------------------------------------------------------|
D|------------------------------------------------------------------------|
A|------------------------------------------------------------------------|
E|-----------------2-2-2-2-2-2-2-2-----------------2-2-2-2-2-2-2-2--------|
B|-4-4-4-4-2-2-2-2-----------------4-4-4-4-2-2-2-2------------------------|
                                                                           }2x
G|------------------------------------------------------------------------|
D|------------------------------------------------------------------------|
A|------------------------------------------------------------------------|
E|-----------------2-2-2-2-2-2-2-2----------------------------------------|
B|-4-4-4-4-2-2-2-2-----------------2-2-2-2-2-2-2-2-2-2-2-2-2-2-2-2--------|


Bridge

G|------------------------------------------------------------------------|
D|------------------------------------------------------------------------|
A|------------------------------------------2-------------2---------------|
E|---------2---------------2-----6------2-------------2-------------------|
B|-4---------------4----------------2-------------2-----------------------|

G|------------------------------------------------------------------------|
D|------------------------------------------------------------------------|
A|---------------------------------2-2-2-2-2-2-2-2-2-2-2-2-2-2-2-2--------|
E|-----------------2-2-2-2-2-2-2-2----------------------------------------|
B|-2-2-2-2-2-2-2-2--------------------------------------------------------|

G|------------------------------------------------------------------------|
D|------------------------------------------------------------------------|
A|---------------------------------2-2-2-2-2-2-2-2-2-2-2-2-2--------------|
E|-----------------2-2-2-2-2-2-2-2----------------------------------------|
B|-2-2-2-2-2-2-2-2--------------------------------------------------------|

G|------------------------------------------------------------------------|
D|------------------------------------------------------------------------|
A|---------------------------------2-2-2-2-2-2-2-2-2-2-2-2-2-2-2-2--------|
E|-----------------2-2-2-2-2-2-2-2----------------------------------------|
B|-2-2-2-2-2-2-2-2--------------------------------------------------------|

G|------------------------------------------------------------------------|
D|------------------------------------------------------------------------|
A|---------------------------------2-2-2-2-2-2-2-2-2-2-2-2-2-2-1-1--------|
E|-----------------2-2-2-2-2-2-2-2----------------------------------------|
B|-2-2-2-2-2-2-2-2--------------------------------------------------------|

G|------------------------------------------------------------------------|
D|------------------------------------------------------------------------|
A|---------------------------------2-2-2-2-2-2-2-2-2-2-2-2-2-2-2-2--------|
E|-----------------2-2-2-2-2-2-2-2----------------------------------------|
B|-2-2-2-2-2-2-2-2--------------------------------------------------------|

G|------------------------------------------------------------------------|
D|------------------------------------------------------------------------|
A|---------------------------------2-2-2-2-2-2-2-2/14-14-14-14-14-14-14-14|
E|-----------------2-2-2-2-2-2-2-2----------------------------------------|
B|-2-2-2-2-2-2-2-2--------------------------------------------------------|


Chorus 3

G|---------------------------------------------|
D|---------------------------------------------|
A|---------------------------------------------|
E|-----------------2(16x)-------------2(16x)---|
B|---p-a-u-s-e------------4(8x)-2(8x)----------|

G|-----------------------------|
D|-----------------------------|
A|--------------------4(32x)---|
E|-------------2(16x)----------|
B|-4(8x)-2(8x)-----------------|

G|---------------------------------------------------|
D|---------------------------------------------------|
A|---------------------------------------------------|
E|-------------2(16x)-------------2(6x)-4(6x)-2(4x)--|
B|-4(8x)-2(8x)--------4(8x)-2(8x)--------------------|

G|---------------------------------|
D|---------------------------------|
A|--------------------4(16x)-------|
E|-------------2(16x)--------------|
B|-4(8x)-2(8x)---------------2-2---|

            
            
Suggest correction
Creating personal tab
Creating personal tab
You can edit any tab online and save it as your Personal.

You can edit, replace or remove any tab part or add personal notes – all changes will be seen only by you.

Personal tabs can be accessed anytime from any device, even offline.
Learn more »
Give kudos to tab author, rate the tab!
1 2 3 4 5
comments
print report bad tab
guest
You may want to rate the tab now too:
select rating
Wanna post a correction for this tab? Suggest correction