Oops, an error
Loading. Please wait.

No Different tab

622 views 1 this week
no commentswrite comment
1 2 3 4 5
2 more votes to show rating
add to favorites
×
Save as Personal and add changes to this tab that will be seen only by you. Learn more ›
×
You can save this tab as Personal to edit and correct it or add notes. All changes will be seen only by you. Learn more »
launch autoscroll
font size
0
reset
how to read this tab
guitar tuner
edit
Autoscroll
slow
fast
+/-
esc
set tempo
stop
Author
Difficulty
-------------------------------------------------------------------------------
                             NO DIFFERENT - Tonight Alive
-------------------------------------------------------------------------------
Tabbed by: imminentfate

Tuning: DADGBE

 (i believe the beginning is tremolo picked but i think this is just easier)

listen to the song for the timing of the patterns.... I also tabbed this so that its a mix of 
both parts (:


      0:00
e|--------------------------------------------------------------------------------------------|
B|------------11-------------------------------------------------11---------------------------|
G|----------------12---------------12--10-------------------12-------12-----10--12--10--------| X2
D|--10-10-13-----------13--13--13-----------13--------------------------------------------13--|
A|------------------------------------------------13--13--------------------------------------|
E|--------------------------------------------------------------------------------------------|
      0:08
e|---------------------------------------------------------------------------|
B|---------------------------------------------------------------------------|
G|---5--5------5--5-------5------7------8-------5------5--------7------------|
D|---------5---------5-------5------5-------5------5-------5--------5--------| X3
A|---------------------------------------------------------------------------|
E|---------------------------------------------------------------------------|
     *  *  *  *  *   *   *   *   *  *   *  *    *  *   *   *    *   *
     0:20                                                                        
e|---------------------------------------------------------------------------|
B|---5-----5------8-----7------8-------5-------5------7----------------------|
G|------5-----5------5-----5-------5-------5------5--------------------------|
D|---------------------------------------------------------------------------|
A|---------------------------------------------------------------------------|
E|---------------------------------------------------------------------------|
    *   *  *  *  *  *  *   *   *  *   *    *  *   *   *
     0:24
e|------------------------------11-11-11--101010--------------------------------------------------|
B|---------------------1313--------------------101010---------------------------------------------|
G|------------------------------------------------------5---5-5-5-5---5--5-----5---5-5-5-5---5--5-|
D|--5---5-5-5-5---5--5----------------------------------5---5-5-5-5---5--5-----5---5-5-5-5---5--5-|
A|--5---5-5-5-5---5--5----------------------------------3---3-3-3-3---3--3-----3---3-3-3-3---3--3-|
D|--5---5-5-5-5---5--5----------------------------------------------------------------------------|

e|---------11-11-11--101010----------------------------------------------------------|
B|---1313--------------------101010--------------------------------------------------|
G|---------------------------------5---5-5-5-5---5--5-----5---5-5-5-5---5--5---------|
D|---------------------------------5---5-5-5-5---5--5-----5---5-5-5-5---5--5---------|
A|---------------------------------3---3-3-3-3---3--3-----3---3-3-3-3---3--3---------|
D|-----------------------------------------------------------------------------------|
      0:36
e|-----------------------------------------------------------------------|
B|-----------------------------------------------------------------------|
G|--------------12------12----------12-----12----10101010101010----------|(slowly release this note)
D|---10-10-10-------10-------10-10-----10--------------------------------|
A|-----------------------------------------------------------------------|
E|-----------------------------------------------------------------------|
     *  *  *        *        *  *      * 
      0:40
e|---------------------------------------------------------------------------|
B|---------------------------------------------------------------------------|
G|------------8-8-8---5-5-5--3-3-3-------------------------------------------|  X2 
D|-6--6-6-----8-8-8---5-5-5--3-3-3-------------------------------------------|
A|-6--6-6-----6-6-6---3-3-3--1-1-1-------------------------------------------|
E|-6--6-6--------------------------------------------------------------------|
     
e|---------------------------------------------------------------------------|
B|---------------------------------------------------------------------------|
G|--------------8-8-8-8-8---3-3-3--5-5-5--8-8-8-8-8-8--10-10-10-10-----------|
D|--6-6-6-6-6---8-8-8-8-8---3-3-3--5-5-5--8-8-8-8-8-8--10-10-10-10-----------|
A|--6-6-6-6-6---6-6-6-6-6---1-1-1--3-3-3--6-6-6-6-6-6--8--8--8--8------------|
E|--6-6-6-6-6----------------------------------------------------------------|
    0:57
e|--------------------------------------------------------------------------------------------|
B|------------11-------------------------------------------------11---------------------------|
G|----------------12---------------12--10-------------------12-------12-----10--12--10--------| 
D|--10-10-13-----------13--13--13-----------13--------------------------------------------13--|
A|------------------------------------------------13---13-------------------------------------|
E|--------------------------------------------------------------------------------------------|


    1:09
e|---------------------------------------------------------------------------|
B|---------------------------------------------------------------------------|
G|---5--5------5--5-------5------7------8-------5------5--------7------------|
D|---------5---------5-------5------5-------5------5-------5--------5--------|
A|---------------------------------------------------------------------------|
E|---------------------------------------------------------------------------|
     *  *  *  *  *   *   *   *   *  *   *  *    *  *   *   *    *   *                                                                       
e|---------------------------------------------------------------------------|
B|---5-----7------8------5-----7-------8-------------------------------------|
G|------5-----5------5-----5-------5----------5-5-5-5-5-5--------------------|
D|--------------------------------------------5-5-5-5-5-5--------------------|
A|---------------------------------------------------------------------------|
E|---------------------------------------------------------------------------|
    *   *  *  *  *  *  *   *   *  *   *    
     1:17
e|---------------------------------------------------------------------------|
B|---------------------------------------------------------------------------|
G|------------8-8-8---5-5-5--3-3-3-------------------------------------------|  X2 
D|-6--6-6-----8-8-8---5-5-5--3-3-3-------------------------------------------|
A|-6--6-6-----6-6-6---3-3-3--1-1-1-------------------------------------------|
E|-6--6-6--------------------------------------------------------------------|
     
e|---------------------------------------------------------------------------|
B|---------------------------------------------------------------------------|
G|--------------8-8-8-8-8---3-3-3--5-5-5--8-8-8-8-8-8--10-10-10-10-----------|
D|--6-6-6-6-6---8-8-8-8-8---3-3-3--5-5-5--8-8-8-8-8-8--10-10-10-10-----------|
A|--6-6-6-6-6---6-6-6-6-6---1-1-1--3-3-3--6-6-6-6-6-6--8--8--8--8------------|
E|--6-6-6-6-6----------------------------------------------------------------|

            1:34
e|-11-11-11------------------------------------------------------------------------|
B|----------9-9-9--8-8-8-----------------------------------------------------------|
G|-----------------------8-8-8---12-12-12-12-12-12--10-10-10-----------------------|
D|-----------------------------------------------------------12-12-12--------------|
A|---------------------------------------------------------------------------------|
E|---------------------------------------------------------------------------------|

e|-11-11-11-----------------------------------------------------------|
B|----------9-9-9--8-8-8----------------------------11-11-11-11-11-11-|(bend string as you play 11)
G|-----------------------8-8-8---12-12-12-12-12-12--------------------|
D|--------------------------------------------------------------------|
A|--------------------------------------------------------------------|
E|--------------------------------------------------------------------|

E|-11-----------11--------11---------------11-------------------------------15------------------|
B|----9-8-9-8-9----9-8-9-------9-8-9-8-9--------9-8-9--------13----13----13----13------13-------|
G|-------------------------------------------------------15-----15----15-----------15-----------|
D|----------------------------------------------------------------------------------------------|
A|----------------------------------------------------------------------------------------------|
E|----------------------------------------------------------------------------------------------|

e|-----------------------15--------------------------------------------------|
B|-----13-----13-----13------13-----13---------------------------------------|
G|--15-----15----15-------------15-------------------------------------------|
D|---------------------------------------------------------------------------|
A|---------------------------------------------------------------------------|
E|---------------------------------------------------------------------------|

E|-11-----------11--------11---------------11-------------------------------15------------------|
B|----9-8-9-8-9----9-8-9-------9-8-9-8-9--------9-8-9--------13----13----13----13------13-------|
G|-------------------------------------------------------15-----15----15-----------15-----------|
D|----------------------------------------------------------------------------------------------|
A|----------------------------------------------------------------------------------------------|
E|----------------------------------------------------------------------------------------------|

e|-----------------------15--------------------------------------------------|
B|-----13-----13-----13------13-----13---------------------------------------|
G|--15-----15----15-------------15-------------------------------------------|
D|---------------------------------------------------------------------------|
A|---------------------------------------------------------------------------|
E|---------------------------------------------------------------------------|
        2:07
e|---------------------------------------------------------------------------|
B|---------------------------------------------------------------------------|
G|---------------------------------------------------------------------------|
D|--6--5---------------------------------------------------------------------|
A|--6--5---------------------------------------------------------------------|
E|--6--5----1--3--5--0-------------------------------------------------------|

e|---------------------------------------------------------------------------|
B|---------------------------------------------------------------------------|
G|------------8-8-8---5-5-5--3-3-3-------------------------------------------|  
D|-6--6-6-----8-8-8---5-5-5--3-3-3-------------------------------------------|
A|-6--6-6-----6-6-6---3-3-3--1-1-1-------------------------------------------|
E|-6--6-6--------------------------------------------------------------------|

e|---------------------------------------------------------------------------|
B|---------------------------------------------------------------------------|
G|--------------8-8-8-8-8---3-3-3--5-5-5--8-8-8-8-8-8--10-10-10-10-----------|
D|--6-6-6-6-6---8-8-8-8-8---3-3-3--5-5-5--8-8-8-8-8-8--10-10-10-10-----------|
A|--6-6-6-6-6---6-6-6-6-6---1-1-1--3-3-3--6-6-6-6-6-6--8--8--8--8------------|
E|--6-6-6-6-6----------------------------------------------------------------|

e|--------------------------------------------------------------------------------------------|
B|------------11-------------------------------------------------11---------------------------|
G|----------------12---------------12--10-------------------12-------12-----10--12--10--------| X2
D|--10-10-13-----------13--13--13-----------13--------------------------------------------13--|
A|------------------------------------------------13---13-------------------------------------|
E|--------------------------------------------------------------------------------------------|

e|---------------------------------------------------------------------------|
B|---------------------------------------------------------------------------|
G|--1--3--5--0--1--0---------------------------------------------------------|
D|--------------------0-0----------------------------------------------------|
A|--------------------0-0----------------------------------------------------|
E|--------------------0-0----------------------------------------------------|

I did this all by ear so i know its not perfect but if you have corrections you really want to
submit, feel free (:


************************************

| /   slide up
| \   slide down
| h   hammer-on
| p   pull-off
| ~   vibrato
| +   harmonic
| x   Mute note
| b   Bend
| pb  Pre-bend
| br  Bend release
| pbr Pre-bend release
| brb Bend release bend

************************************

            
            
Suggest correction
Creating personal tab
Creating personal tab
You can edit any tab online and save it as your Personal.

You can edit, replace or remove any tab part or add personal notes – all changes will be seen only by you.

Personal tabs can be accessed anytime from any device, even offline.
Learn more »
Give kudos to tab author, rate the tab!
1 2 3 4 5
comments
print report bad tab
guest
You may want to rate the tab now too:
select rating
Wanna post a correction for this tab? Suggest correction