Oops, an error
Loading. Please wait.

Thank You And Goodnight bass

version 1
version 1

Whole song

Interactive

1,702 views 6 this week
no commentswrite comment
1 2 3 4 5
2 more votes to show rating
add to favorites
×
Save as Personal and add changes to this tab that will be seen only by you. Learn more ›
×
You can save this tab as Personal to edit and correct it or add notes. All changes will be seen only by you. Learn more »
launch autoscroll
font size
0
reset
guitar tuner
edit
Autoscroll
slow
fast
+/-
esc
set tempo
stop
Artist: Tonight Alive
Featured Artist: Mark Hoppus (Blink-182)
Bassist: Cameron Adler
Album: What Are You So Scared Of?
Song: Thank You & Goodnight
Tuning: Standard

Intro These are 11s (elevens) not 1s (ones).
G|----------------------------------------------------|
D|----------------------------------------------------|
A|---------13-13-13-11-11-11--------13/15\13-11-11-11-|
E|-11-11-11-----------------11-11-11------------------|

Verse
G|---------------------------------------------|
D|---------------------------------------------|
A|-66666-666688888-8888333333-3333-------------| x2
E|--------------------------------444444-4444--|

Chorus
G|------------------------------------------|
D|------------------------------------------|
A|-66666666---------------------------------| x2
E|---------33333333444444446-6-6-6-6-6-6-6--|

Play Intro once
Verse
G|--------------------------------------------|
D|--------------------------------------------|
A|-66666-666688888-8888333333-3333------------|
E|--------------------------------444444-4444-|

G|----------------------------------|
D|----------------------------------|
A|-666666668888888833333333---------|
E|-------------------------44444444-|

Play Chorus
Bride
G|---------------------------------|
D|---------------------------------|
A|-6-6-6-3-3-3---------------------|
E|-------------3-3-3-4-4-4-4-------|

G|-------------------------------------------------------------------|
D|-------------------------------------------------------------------|
A|-6-6-6-3-3-3----------------------6666666633333333-----------------|
E|-------------3-3-3-4-44-4-44----------------------3333333344444444-|


Chorus
G|---------------------------------------------------------------------|
D|---------------------------------------------------------------------|
A|-66666-----------------------------66666666--------------------------|
E|--------33333-4444444466666666-------------33333333-4444444466666666-|

Play Chorus I showed earlier

Outro (same as intro, just end on a different note)

G|------------------------------------------------------|
D|------------------------------------------------------|
A|---------13-13-13-11-11-11--------13/15\13-11-11-11-6-|
E|-11-11-11-----------------11-11-11--------------------|

            
            
Suggest correction
Creating personal tab
Creating personal tab
You can edit any tab online and save it as your Personal.

You can edit, replace or remove any tab part or add personal notes – all changes will be seen only by you.

Personal tabs can be accessed anytime from any device, even offline.
Learn more »
Give kudos to tab author, rate the tab!
1 2 3 4 5
comments
print report bad tab
guest
You may want to rate the tab now too:
select rating
Wanna post a correction for this tab? Suggest correction