Oops, an error
Loading. Please wait.

The Fire bass

601 views 1 this week
1 commentread comment
1 2 3 4 5
2 more votes to show rating
add to favorites
×
Save as Personal and add changes to this tab that will be seen only by you. Learn more ›
×
You can save this tab as Personal to edit and correct it or add notes. All changes will be seen only by you. Learn more »
launch autoscroll
font size
0
reset
guitar tuner
edit
Autoscroll
slow
fast
+/-
esc
set tempo
stop
-------------------------------------------------------------------------------
                             The Fire - Tonight Alive
-------------------------------------------------------------------------------
Tabbed by: music_freak27

Tuning: Drop C (CGCF)


Intro

F|------------|------------|------------|------------|
C|------------|------------|------------|------------|
G|00-00-00-00-|------------|00-00-00-00-|------------|
C|------------|33-33-33-33-|------------|33-33-33-33-|
  1   2  3   4

Verse 1

Patiently I was waiting...
F|----------------|----------------|-----------|----------|
C|----------------|----------------|-----------|----------|
G|0000000000000000|0000000022223333|-----------|----------| x2
C|----------------|----------------|33-3333-33-|33-3333-33|
  1   2   3   4                     1 2  3  4

Pre-chorus

But I made it...
F|----------------|----------------|---------------|----------------|
C|----------------|----------------|---------------|----------------|
G|----------------|----------------|---------------|----------------|
C|5555555555555555|3333333333333333|555555555555555|222222222-------|
                                                    1   2   3   4   
Chorus

I feel like...
F|----------------|----------------|----------------|-----------------------|
C|----------------|----------------|----------------|-----------------------|
G|----------------|----------------|----------------|-----------------------|
C|3333333333333333|3333333555555555|7777777777777777|77777777710101010101010|
                  ^a tad syncopated                  ^syncopated again

F|----------------|----------------|----------------|----------------|
C|----------------|----------------|----------------|----------------|
G|----------------|----------------|----------------|----------------|
C|3333333333333333|3333333555555555|7777777777777777|5---------------|
                   ^same syncopation                 1   2   3   4   

|Repeat    |
|          |
|Intro     |
|Verse 1   |
|pre-chorus|


Chorus

I feel like...
F|----------------|----------------|----------------|----------------------|
C|----------------|----------------|----------------|----------------------|
G|----------------|----------------|----------------|----------------------|
C|3333333333333333|3333333333555555|7777777777777777|7777777777101010101010|
                  ^a tad syncopated                  ^syncopated again

F|----------------|----------------|----------------|----------------|
C|----------------|----------------|----------------|----------------|
G|----------------|----------------|----------------|----------------|
C|3333333333333333|3333333333555555|7777777777777777|5555555555555---|
                   ^same syncopation                 1   2   3   4 

Bridge

F|------------|------------|------------|------------|
C|------------|------------|------------|------------|
G|0-00-00-----|0-00-00-----|------------|------------| x2
C|------------|------------|3-33-33-----|5-55-55-----|
  1  2    3 4   

Chorus

I feel like...
F|--------|--------|-------|-------|
C|--------|--------|-------|-------|
G|0~------|~[hold]-|-------|-------|
C|--------|--------|7~~~\--|7~~~\--|
  1+2+3+4+ 1+2+3+4+ 1+2+3+4

F|----------------|----------------|----------------|----------------|
C|----------------|----------------|----------------|----------------|
G|----------------|----------------|----------------|----------------|
C|3333333333333333|3333333333555555|7777777777777777|5555555555555555|
                         ^syncopated!
Outro

F|----------------|----------------|----------------|----------------|
C|----------------|----------------|----------------|----------------|
G|----------------|----------------|----------------|----------------| 
C|3333333333332222|3333333333335555|7777777777775555|7777777777775555|
  1   2   3   4   

F|----------------|----------------|----------------|----------------|
C|----------------|----------------|----------------|----------------|
G|----------------|----------------|----------------|----------------| 
C|3333333333332222|3333333333335555|7777777777777777|5---------------|

Enjoy! Not sure if it is 100% accurate, but let me know! Comments/feedback and rates are very appreciated.:) 


| /  slide up
| \  slide down
| h  hammer-on
| p  pull-off
| ~  vibrato
| +  harmonic
| x  Mute note
===============================================================================

            
            
Suggest correction
Creating personal tab
Creating personal tab
You can edit any tab online and save it as your Personal.

You can edit, replace or remove any tab part or add personal notes – all changes will be seen only by you.

Personal tabs can be accessed anytime from any device, even offline.
Learn more »
Give kudos to tab author, rate the tab!
1 2 3 4 5
comments
print report bad tab
1 comment total.
0 reply
KittTheBrit 10 Jan 31, 2016 08:56 AM, edited at 02:01 pm

I think it gets the bridge wrong, and there are more notes than this tab lets on but other than that it seems correct to me.

guest
You may want to rate the tab now too:
select rating
Wanna post a correction for this tab? Suggest correction