Oops, an error
Loading. Please wait.

The Fire tab

version 2
version 2

Whole song

11,857 views 48 this week
2 commentsread comments
1 2 3 4 5
x 13
add to favorites
×
Save as Personal and add changes to this tab that will be seen only by you. Learn more ›
×
You can save this tab as Personal to edit and correct it or add notes. All changes will be seen only by you. Learn more »
launch autoscroll
font size
0
reset
how to read this tab
guitar tuner
edit
Autoscroll
slow
fast
+/-
esc
set tempo
stop
-------------------------------------------------------------------------------
                             THE FIRE - Tonight Alive
-------------------------------------------------------------------------------
Tabbed by: Michael Vansingel
Last Edited: 5th March 2015 - thanks to lg187 for noticing
Tuning: Drop C

Notes:
I also recorded and uploaded a cover to Youtube: https://www.youtube.com/watch?v=ElQski9t9BQ

pm = palm mute
/ = slide


0:00 - 0:09

Guitar 1:

D|---------------------------------------------------------------------------|
A|---------------------------------------------------------------------------| x2
F|---------------------------------------------------------------------------|
C|-1010-1010-1010-7--7---55-55-55-33-----------------------------------------|
G|-7-7--7-7--7-7--10-10--33-33-33-33-----------------------------------------|
C|-7-7--7-7--7-7--7--7---33-33-33-33-----------------------------------------|

Guitar 2:

D|-------------15------------------------------------------------------------|
A|----13-12-13----13-12-13---------------------------------------------------|
F|-14------------------------------------------------------------------------|
C|---------------------------------------------------------------------------|
G|---------------------------------------------------------------------------|
C|---------------------------------------------------------------------------|

D|-------------15------------------------------------------------------------|
A|----13-12-13----13-12-13---------------------------------------------------| x2
F|-12------------------------------------------------------------------------|
C|---------------------------------------------------------------------------|
G|---------------------------------------------------------------------------|
C|---------------------------------------------------------------------------|

D|-------------15------------------------------------------------------------|
A|----13-12-13----13-12-13---------------------------------------------------|
F|-14------------------------------------------------------------------------|
C|---------------------------------------------------------------------------|
G|---------------------------------------------------------------------------|
C|---------------------------------------------------------------------------|

D|-------------15------------------------------------------------------------|
A|----13-12-13----13-12-13---------------------------------------------------| x4
F|-12------------------------------------------------------------------------|
C|---------------------------------------------------------------------------|
G|---------------------------------------------------------------------------|
C|---------------------------------------------------------------------------|


0:09 - 0:28

Guitar 1:

D|---------------------------------------------------------------------------|--|
A|---------------------------------------------------------------------------|  | x2
F|---------------------------------------------------------------------------|  |
C|-----5-5-5-5-----5-5-5-5-----5-5-----5-5-5-5-----5-5-5-5-----5-5-----------|  |
G|-----7-7-7-7-----7-7-7-7-----7-7-----7-7-7-7-----7-7-7-7-----7-7-----------|  |
C|-7-7---------7-7---------7-7-----7-7---------7-7---------7-7---------------|  |
pm * *         * *         * *     * *         * *         * *                  |
                                                                                |
D|---------------------------------------------------------------------------|  |
A|---------------------------------------------------------------------------|  |
F|--------10-10-10-10-10---------9-9-9-9-9-----------------------------------|  |
C|--------x--x--x--x--x----------x-x-x-x-x-----------------------------------|  |
G|-3-3-3--8--8--8--8--8---3-3-3--7-7-7-7-7-----------------------------------|  |
C|-3-3-3------------------3-3-3----------------------------------------------|  |
pm * * *                  * * *                                                 |
                                                                                |
D|---------------------------------------------------------------------------|  |
A|---------------------------------------------------------------------------|  |
F|--------10-10-10-10-10---------9-9-9-9-9-----------------------------------|  |
C|--------x--x--x--x--x----------x-x-x-x-x-----------------------------------|  |
G|-3-3-3--8--8--8--8--8---3-3-3--7-7-7-7-7-----------------------------------|  |
C|-3-3-3------------------3-3-3----------------------------------------------|--|
pm * * *                  * * *

Guitar 2:

D|---------------------------------------------------------------------------|--|
A|---------------------------------------------------------------------------|  | x2
F|---------------------------------------------------------------------------|  |
C|-----5-5-5-5-----5-5-5-5-----5-5-----5-5-5-5-----5-5-5-5-----5-5-----------|  |
G|-----7-7-7-7-----7-7-7-7-----7-7-----7-7-7-7-----7-7-7-7-----7-7-----------|  |
C|-7-7---------7-7---------7-7-----7-7---------7-7---------7-7---------------|  |
pm * *         * *         * *     * *         * *         * *                  |
                                                                                |
D|-------------15----------------------15------------------------------------|  |
A|----13-12-13----13-12-13----13-12-13----13-12-13---------------------------|  |
F|-14----------------------12------------------------------------------------|  |
C|---------------------------------------------------------------------------|  |
G|---------------------------------------------------------------------------|  |
C|---------------------------------------------------------------------------|  |
                                                                                |
D|-------------15----------------------15------------------------------------|  |
A|----13-12-13----13-12-13----13-12-13----13-12-13---------------------------|  |
F|-14----------------------12------------------------------------------------|  |
C|---------------------------------------------------------------------------|  |
G|---------------------------------------------------------------------------|  |
C|---------------------------------------------------------------------------|--|


0:28 - 0:36

Guitar 1 & 2:

D|---------------------------------------------------------------------------|
A|---------------------------------------------------------------------------|
F|-------------5---4---5---4-------------------------------------------------|
C|-------7---------------------5--------5-5-5-------2-2-2--------------------|
G|---------0-0---0---0---0---0----------7-7-7-------3-3-3--------------------|
C|-7-7-7--------------------------7-7-7-------3-3-3--------------------------|
pm * * *   * *   *   *   *   *    * * *       * * *

D|---------------------------------------------------------------------------|
A|---------------------------------------------------------------------------|
F|-------------5---4---5---4-------------------------------------------------|
C|-------7---------------------5--2-2-2-2-2-2-2-2----------------------------|
G|---------0-0---0---0---0---0----3-3-3-3-3-3-3-3----------------------------|
C|-7-7-7--------------------------2-2-2-2-2-2-2-2----------------------------|
pm * * *   * *   *   *   *   *    * * * * *


0:36 - 0:53

Guitar 1:

D|---------------------------------------------------------------------------|
A|---------------------------------------------------------------------------|
F|---------------------------------------------------------------------------|
C|-3-3-3-3-3-3-3-3-3-3-3-3-3-3-3-3--7-7-7-7-7-7-7-7-7-7-7-7-7-7-7-7----------|
G|-3-3-3-3-3-3-3-3-3-3-3-3-3-3-3-3--7-7-7-7-7-7-7-7-7-7-7-7-7-7-7-7----------|
C|-3-3-3-3-3-3-3-3-3-3-3-3-3-3-3-3--7-7-7-7-7-7-7-7-7-7-7-7-7-7-7-7----------|

D|---------------------------------------------------------------------------|
A|---------------------------------------------------------------------------|
F|---------------------------------------------------------------------------|
C|-3-3-3-3-3-3-3-3-3-3-3-3-3-3-3-3--7-7-7-7-7-7-7-7--5-----------------------|
G|-3-3-3-3-3-3-3-3-3-3-3-3-3-3-3-3--7-7-7-7-7-7-7-7--5-----------------------|
C|-3-3-3-3-3-3-3-3-3-3-3-3-3-3-3-3--7-7-7-7-7-7-7-7--5-----------------------|

Guitar 2:

D|----------15---------------------------------------------------------------|
A|-10-13-10----13-10---------------------------------------------------------| x7
F|---------------------------------------------------------------------------|
C|---------------------------------------------------------------------------|
G|---------------------------------------------------------------------------|
C|---------------------------------------------------------------------------|


0:55 - 1:04

Guitar 1:

D|---------------------------------------------------------------------------|
A|---------------------------------------------------------------------------| x2
F|---------------------------------------------------------------------------|
C|-1010-1010-1010-7--7---55-55-55-33-----------------------------------------|
G|-7-7--7-7--7-7--10-10--33-33-33-33-----------------------------------------|
C|-7-7--7-7--7-7--7--7---33-33-33-33-----------------------------------------|

Guitar 2:

D|-------------15------------------------------------------------------------|
A|----13-12-13----13-12-13---------------------------------------------------|
F|-14------------------------------------------------------------------------|
C|---------------------------------------------------------------------------|
G|---------------------------------------------------------------------------|
C|---------------------------------------------------------------------------|

D|-------------15------------------------------------------------------------|
A|----13-12-13----13-12-13---------------------------------------------------| x2
F|-12------------------------------------------------------------------------|
C|---------------------------------------------------------------------------|
G|---------------------------------------------------------------------------|
C|---------------------------------------------------------------------------|

D|-------------15------------------------------------------------------------|
A|----13-12-13----13-12-13---------------------------------------------------|
F|-14------------------------------------------------------------------------|
C|---------------------------------------------------------------------------|
G|---------------------------------------------------------------------------|
C|---------------------------------------------------------------------------|

D|-------------15------------------------------------------------------------|
A|----13-12-13----13-12-13---------------------------------------------------| x4
F|-12------------------------------------------------------------------------|
C|---------------------------------------------------------------------------|
G|---------------------------------------------------------------------------|
C|---------------------------------------------------------------------------|


1:04 - 1:22

Guitar 1:

D|---------------------------------------------------------------------------|--|
A|---------------------------------------------------------------------------|  | x2
F|---------------------------------------------------------------------------|  |
C|-----5-5-5-5-----5-5-5-5-----5-5-----5-5-5-5-----5-5-5-5-----5-5-----------|  |
G|-----7-7-7-7-----7-7-7-7-----7-7-----7-7-7-7-----7-7-7-7-----7-7-----------|  |
C|-7-7---------7-7---------7-7-----7-7---------7-7---------7-7---------------|  |
pm * *         * *         * *     * *         * *         * *                  |
                                                                                |
D|---------------------------------------------------------------------------|  |
A|---------------------------------------------------------------------------|  |
F|--------10-10-10-10-10---------9-9-9-9-9-----------------------------------|  |
C|--------x--x--x--x--x----------x-x-x-x-x-----------------------------------|  |
G|-3-3-3--8--8--8--8--8---3-3-3--7-7-7-7-7-----------------------------------|  |
C|-3-3-3------------------3-3-3----------------------------------------------|  |
pm * * *                  * * *                                                 |
                                                                                |
D|---------------------------------------------------------------------------|  |
A|---------------------------------------------------------------------------|  |
F|--------10-10-10-10-10---------9-9-9-9-9-----------------------------------|  |
C|--------x--x--x--x--x----------x-x-x-x-x-----------------------------------|  |
G|-3-3-3--8--8--8--8--8---3-3-3--7-7-7-7-7-----------------------------------|  |
C|-3-3-3------------------3-3-3----------------------------------------------|--|
pm * * *                  * * *

Guitar 2:

D|---------------------------------------------------------------------------|--|
A|---------------------------------------------------------------------------|  | x2
F|---------------------------------------------------------------------------|  |
C|-----5-5-5-5-----5-5-5-5-----5-5-----5-5-5-5-----5-5-5-5-----5-5-----------|  |
G|-----7-7-7-7-----7-7-7-7-----7-7-----7-7-7-7-----7-7-7-7-----7-7-----------|  |
C|-7-7---------7-7---------7-7-----7-7---------7-7---------7-7---------------|  |
pm * *         * *         * *     * *         * *         * *                  |
                                                                                |
D|-------------15----------------------15------------------------------------|  |
A|----13-12-13----13-12-13----13-12-13----13-12-13---------------------------|  |
F|-14----------------------12------------------------------------------------|  |
C|---------------------------------------------------------------------------|  |
G|---------------------------------------------------------------------------|  |
C|---------------------------------------------------------------------------|  |
                                                                                |
D|-------------15----------------------15------------------------------------|  |
A|----13-12-13----13-12-13----13-12-13----13-12-13---------------------------|  |
F|-14----------------------12------------------------------------------------|  |
C|---------------------------------------------------------------------------|  |
G|---------------------------------------------------------------------------|  |
C|---------------------------------------------------------------------------|--|


1:22 - 1:31

Guitar 1 & 2:

D|---------------------------------------------------------------------------|
A|---------------------------------------------------------------------------|
F|-------------5---4---5---4-------------------------------------------------|
C|-------7---------------------5--------5-5-5-------2-2-2--------------------|
G|---------0-0---0---0---0---0----------7-7-7-------3-3-3--------------------|
C|-7-7-7--------------------------7-7-7-------3-3-3--------------------------|
pm * * *   * *   *   *   *   *    * * *       * * *

D|---------------------------------------------------------------------------|
A|---------------------------------------------------------------------------|
F|-------------5---4---5---4-------------------------------------------------|
C|-------7---------------------5--2-2-2-2-2-2-2-2----------------------------|
G|---------0-0---0---0---0---0----3-3-3-3-3-3-3-3----------------------------|
C|-7-7-7--------------------------2-2-2-2-2-2-2-2----------------------------|
pm * * *   * *   *   *   *   *    * * * * *


1:32 - 1:49

Guitar 1:

D|---------------------------------------------------------------------------|
A|---------------------------------------------------------------------------|
F|---------------------------------------------------------------------------|
C|-3-3-3-3-3-3-3-3-3-3-3-3-3-3-3-3--7-7-7-7-7-7-7-7-7-7-7-7-7-7-7-7----------|
G|-3-3-3-3-3-3-3-3-3-3-3-3-3-3-3-3--7-7-7-7-7-7-7-7-7-7-7-7-7-7-7-7----------|
C|-3-3-3-3-3-3-3-3-3-3-3-3-3-3-3-3--7-7-7-7-7-7-7-7-7-7-7-7-7-7-7-7----------|

D|---------------------------------------------------------------------------|
A|---------------------------------------------------------------------------|
F|---------------------------------------------------------------------------|
C|-3-3-3-3-3-3-3-3-3-3-3-3-3-3-3-3--7-7-7-7-7-7-7-7--5-5-5-5-5-5-5-5---------|
G|-3-3-3-3-3-3-3-3-3-3-3-3-3-3-3-3--7-7-7-7-7-7-7-7--5-5-5-5-5-5-5-5---------|
C|-3-3-3-3-3-3-3-3-3-3-3-3-3-3-3-3--7-7-7-7-7-7-7-7--5-5-5-5-5-5-5-5---------|

Guitar 2:

D|----------15---------------------------------------------------------------|
A|-10-13-10----13-10---------------------------------------------------------| x7
F|---------------------------------------------------------------------------|
C|---------------------------------------------------------------------------|
G|---------------------------------------------------------------------------|
C|---------------------------------------------------------------------------|


1:50 - 1:59

Guitar 1 & Guitar 2:

D|---------------------------------------------------------------------------|
A|---------------------------------------------------------------------------|
F|---------------------------------------------------------------------------|
C|--------------2---------------------2--------------------------------------|
G|-7-77-77--3-5---5-3----7-77-77--3-5---5-3~---------------------------------|
C|-7-77-77------------5--7-77-77---------------------------------------------|

D|---------------------------------------------------------------------------|
A|---------------------------------------------------------------------------|
F|---------------------------------------------------------------------------|
C|---------------2----------------2--------2---------------------------------|
G|-3-33-33---3-5---5-3----5-55-55---5-3-5----5-3-----------------------------|
C|-3-33-33-------------3--5-55-55----------------5---------------------------|


1:59 - 2:08

Guitar 1:

D|---------------------------------------------------------------------------|
A|---------------------------------------------------------------------------|
F|---------------------------------------------------------------------------|
C|--------------2---------------------2--------------------------------------|
G|-7-77-77--3-5---5-3----7-77-77--3-5---5-3~---------------------------------|
C|-7-77-77------------5--7-77-77---------------------------------------------|

D|---------------------------------------------------------------------------|
A|---------------------------------------------------------------------------|
F|---------------------------------------------------------------------------|
C|---------------2----------------2--------2---------------------------------|
G|-3-33-33---3-5---5-3----5-55-55---5-3-5----5-3-----------------------------|
C|-3-33-33-------------3--5-55-55----------------5---------------------------|

Guitar 2:

D|---------------------------------------------------------------------------|
A|---------------------------------------------------------------------------| x4
F|--9-10-9-10-9-7----7-------------------------------------------------------|
C|----------------10---------------------------------------------------------|
G|---------------------------------------------------------------------------|
C|---------------------------------------------------------------------------|


2:08 - 2:13

Guitar 1:

D|---------------------------------------------------------------------------|
A|---------------------------------------------------------------------------|
F|---------------------------------------------------------------------------|
C|-3~------------------------------------------------------------------------|
G|-3~------------------------------------------------------------------------|
C|-3~------------------------------------------------------------------------|

Guitar 2:

D|----------15-----------------15--------------------------------------------|
A|-10-13-10----13-10--10-13-10----13-10--------------------------------------|
F|---------------------------------------------------------------------------|
C|---------------------------------------------------------------------------|
G|---------------------------------------------------------------------------|
C|---------------------------------------------------------------------------|


2:13 - 2:17

Guitar 1 & Guitar 2:

D|---------------------------------------------------------------------------|
A|---------------------------------------------------------------------------|
F|---------------------------------------------------------------------------|
C|-7/-7/---------------------------------------------------------------------|
G|-7/-7/---------------------------------------------------------------------|
C|-7/-7/---------------------------------------------------------------------|


2:17 - 2:26

Guitar 1:

D|---------------------------------------------------------------------------|
A|---------------------------------------------------------------------------|
F|---------------------------------------------------------------------------|
C|-3-3-3-3-3-3-3-3-3-3-3-3-3-3-3-3--7-7-7-7-7-7-7-7--5-5-5-5-5-5-5-5---------|
G|-3-3-3-3-3-3-3-3-3-3-3-3-3-3-3-3--7-7-7-7-7-7-7-7--5-5-5-5-5-5-5-5---------|
C|-3-3-3-3-3-3-3-3-3-3-3-3-3-3-3-3--7-7-7-7-7-7-7-7--5-5-5-5-5-5-5-5---------|

Guitar 2:

D|----------15---------------------------------------------------------------|
A|-10-13-10----13-10---------------------------------------------------------| x3
F|---------------------------------------------------------------------------|
C|---------------------------------------------------------------------------|
G|---------------------------------------------------------------------------|
C|---------------------------------------------------------------------------|


2:26 - end

Guitar 1:

D|---------------------------------------------------------------------------|
A|---------------------------------------------------------------------------|
F|---------------------------------------------------------------------------|
C|-3-3-3-3-3-3--5-5--3-3-3-3-3-3--5-5--7-7-7-7-7-7--5-5--7-7-7-7-7-7--5-5----|
G|-3-3-3-3-3-3--5-5--3-3-3-3-3-3--5-5--7-7-7-7-7-7--5-5--7-7-7-7-7-7--5-5----|
C|-3-3-3-3-3-3--5-5--3-3-3-3-3-3--5-5--7-7-7-7-7-7--5-5--7-7-7-7-7-7--5-5----|

D|---------------------------------------------------------------------------|
A|---------------------------------------------------------------------------|
F|---------------------------------------------------------------------------|
C|-3-3-3-3-3-3--5-5--3-3-3-3-3-3--5-5--7-7-7-7-7-7--5-5--7-------------------|
G|-3-3-3-3-3-3--5-5--3-3-3-3-3-3--5-5--7-7-7-7-7-7--5-5--7-------------------|
C|-3-3-3-3-3-3--5-5--3-3-3-3-3-3--5-5--7-7-7-7-7-7--5-5--7-------------------|

Guitar 2:

D|---------------------------------------------------------------------------|
A|-13-12--------13-12--------13-12--------13-12------------------------------| x2
F|-------14-12--------14-12--------14-12--------14-12------------------------|
C|---------------------------------------------------------------------------|
G|---------------------------------------------------------------------------|
C|---------------------------------------------------------------------------|

D|---------------------------------------------------------------------------|
A|---------------------------------------------------------------------------| x2
F|-14-12--------14-12--------14-12--------14-12------------------------------|
C|-------14-12--------14-12--------14-12--------14-12------------------------|
G|---------------------------------------------------------------------------|
C|---------------------------------------------------------------------------|

D|---------------------------------------------------------------------------|
A|-13-12--------13-12--------13-12--------13-12------------------------------| x2
F|-------14-12--------14-12--------14-12--------14-12------------------------|
C|---------------------------------------------------------------------------|
G|---------------------------------------------------------------------------|
C|---------------------------------------------------------------------------|

D|---------------------------------------------------------------------------|
A|---------------------------------------------------------------------------| x2
F|-14-12--------14-12--------14-12--------14-12------------------------------|
C|-------14-12--------14-12--------14-12--------14-12------------------------|
G|---------------------------------------------------------------------------|
C|---------------------------------------------------------------------------|
Suggest correction
Creating personal tab
Creating personal tab
You can edit any tab online and save it as your Personal.

You can edit, replace or remove any tab part or add personal notes – all changes will be seen only by you.

Personal tabs can be accessed anytime from any device, even offline.
Learn more »
comments
print report bad tab
2 comments total.
0 reply
lg187 2,557 Feb 17, 2015 07:37 AM, edited at 12:37 pm

I believe guitar 2 in the intro should start on G14 instead of G12, but on the 4th and 8th times play G12, and same in the verse as well

guest
You may want to rate the tab now too:
select rating
Wanna post a correction for this tab? Suggest correction