Oops, an error
Loading. Please wait.

The Fire tab

version 4
version 4

Whole song

1,124 views 3 this week
no commentswrite comment
1 2 3 4 5
x 3
add to favorites
×
Save as Personal and add changes to this tab that will be seen only by you. Learn more ›
×
You can save this tab as Personal to edit and correct it or add notes. All changes will be seen only by you. Learn more »
launch autoscroll
font size
0
reset
how to read this tab
guitar tuner
edit
Autoscroll
slow
fast
+/-
esc
set tempo
stop
-------------------------------------------------------------------------------
                             THE FIRE - Tonight Alive
-------------------------------------------------------------------------------
Tabbed by: Mattmosca17
E-mail: Mattmosca17@gmail.com
My cover of this song on Youtube: https://www.youtube.com/watch?v=6F0gI1XyrH0

Tuning: Drop C
x8 or x16, etc means repeat that part that many times.
PM means Palm Mute

Intro (0:00 - 0:08)
Rhythm Guitar
D|---------------------------------------------------------------------------|
A|---------------------------------------------------------------------------|
F|---------------------------------------------------------------------------| x2
C|-77--77--77--77----33--33--33--33------------------------------------------|
G|-77--77--77--77----33--33--33--33------------------------------------------|
C|-77--77--77--77----33--33--33--33------------------------------------------|

Lead Guitar
D|-------------15----------------------15------------------------------------|
A|----13-12-13----13-12-13----13-12-13----13-12-13---------------------------|
F|-12----------------------12------------------------------------------------|
C|---------------------------------------------------------------------------|
G|---------------------------------------------------------------------------|
C|---------------------------------------------------------------------------|

D|-------------15----------------------15------------------------------------|
A|----13-12-13----13-12-13----13-12-13----13-12-13---------------------------|
F|---------------------------------------------------------------------------| entire part x2
C|-15----------------------15------------------------------------------------|
G|---------------------------------------------------------------------------|
C|---------------------------------------------------------------------------|

Verse (0:09 - 0:26)
Rhythm Guitar
Part 1
D|---------------------------------------------------------------------------|
A|---------------------------------------------------------------------------|
F|------9--9--9-----9--9--9-----9--9------9--9--9------9--9--9------9--9-----| 
C|-777-10-10-10-777-10-10-10-77-10-10-777-10-10-10-777-10-10-10-77-10-10-----|
G|-777----------777----------77-------777----------777----------77-----------|
C|-777----------777----------77-------777----------777----------77-----------|
PM ***          ***          **       ***          ***          **
Part 2
D|---------------------------------------------------------------------------|
A|---------------------------------------------------------------------------|
F|---------------------------------------------------------------------------| entire part x2
C|-333-3-3-3-3-3-333-2-2-2-2-2-333-3-3-3-3-3-333-2-2-2-2-2-------------------| 
G|-333-----------333-----------333-----------333-----------------------------|
C|-333-----------333-----------333-----------333-----------------------------|
PM ***           ***           ***           ***

Lead Guitar (plays during 2nd part of verse only)
D|-------------15----------------------15------------------------------------|
A|----13-12-13----13-12-13----13-12-13----13-12-13---------------------------|
F|-12----------------------12------------------------------------------------| x2
C|---------------------------------------------------------------------------|
G|---------------------------------------------------------------------------|
C|---------------------------------------------------------------------------|

Bridge (0:27 - 0:36)
Rhythm Guitar Only
D|---------------------------------------------------------------------------|
A|---------------------------------------------------------------------------|
F|-------4-----5-----7-----5---4----------2-2-2-2-2-------0-0-0-0-0----------|
C|-5-5-5---5-5---5-5---5-5---5---5--3-3-3-3-3-3-3-3-2-2-2-2-2-2-2-2----------|
G|---------------------------------------------------------------------------|
C|---------------------------------------------------------------------------|
PM * * *   * *   * *   * *   *   *  * * *           * * *
D|---------------------------------------------------------------------------|
A|---------------------------------------------------------------------------|
F|-------4-----5-----7-----5---4---------------------------------------------|
C|-5-5-5---5-5---5-5---5-5---5---5--2-2-2-2-2-2-2-2-2------------------------|
G|----------------------------------2-2-2-2-2-2-2-2-2------------------------|
C|----------------------------------2-2-2-2-2-2-2-2-2------------------------|
PM * * *   * *   * *   * *   *   *  * * * * * * * *

Chorus (0:37 - 0:54)
Rhythm Guitar Only
D|---------------------------------------------------------------------------|
A|-6------8------------------------------------------------------------------|
F|-5------7-----9------------------------------------------------------------|
C|-3-x12--5-x4--10-x12--10-x4------------------------------------------------|
G|-3------5-----7-------10---------------------------------------------------|
C|-3------5-----7-------10---------------------------------------------------|

D|---------------------------------------------------------------------------|
A|-6------8------------------------------------------------------------------|
F|-5------7-----9------------------------------------------------------------|
C|-3-x12--5-x4--10-x8--5-----------------------------------------------------|
G|-3------5-----7------5-----------------------------------------------------|
C|-3------5-----7------5-----------------------------------------------------|

Post-Chorus (0:55 - 1:03) = same Tab as Intro
Verse 2 (1:04 - 1:20) = same Tab as Verse 1
Bridge 2 (1:21 - 1:30) = same Tab as Bridge 1
Chorus 2 (1:31 - 1:48) = same Tab as Chorus 1

Breakdown/Interlude (1:49 - 2:07)
Rhythm Guitar
D|---------------------------------------------------------------------------|
A|---------------------------------------------------------------------------|
F|---------------------------------------------------------------------------|
C|-7-77-77-----------5--7-77-77----------------------------------------------|
G|-7-77-77---5-7-5-3-5--7-77-77---5-7-5-3------------------------------------|
C|-7-77-77-7---------5--7-77-77-7--------------------------------------------|
PM   *  *                 *  *  
D|---------------------------------------------------------------------------|
A|---------------------------------------------------------------------------|
F|---------------------------------------------------------------------------| entire part x2
C|-3-33-33-----------3--5-55-55----------------------------------------------|
G|-3-33-33---5-7-5-3-3--5-55-55-7-5-3-5-7-5-3--------------------------------|
C|-3-33-33-3---------3--5-55-55----------------------------------------------|
PM   *  *                 *  *

Lead Guitar (2nd time only)
D|---------------------------------------------------------------------------|
A|-5---6---5-----------------------------------------------------------------|
F|-----------------5-------5---7---------------------------------------------| x4
C|---7---7---7-5-7---7-5-7---7---7-------------------------------------------|
G|---------------------------------------------------------------------------|
C|---------------------------------------------------------------------------|

Pre Chorus Thingy? (2:08 - 2:16)
Rhythm Guitar Only (let each chord ring a little)
D|---------------------------------------------------------------------------|
A|---------------------------------------------------------------------------|
F|---------------------------------------------------------------------------|
C|-3--------7--------7-------------------------------------------------------|
G|-3--------7--------7-------------------------------------------------------|
C|-3--------7--------7-------------------------------------------------------|

Chorus (2:17 - 2:25) same as Chorus 1 but only the second portion is played

Outro (2:26 - 2:47)
Rhythm Guitar
D|---------------------------------------------------------------------------|
A|---------------------------------------------------------------------------|
F|---------------------------------------------------------------------------| x2
C|-3------7------------------------------------------------------------------|
G|-3-x16--7-x16--------------------------------------------------------------|
C|-3------7------------------------------------------------------------------|

Lead Guitar
D|---------------------------------------------------------------------------|
A|-13-12-10---------10-------------------------------------------------------|
F|----------12--x8-----12--------x8------------------------------------------|
C|------------------------10-12----------------------------------------------|
G|---------------------------------------------------------------------------|
C|---------------------------------------------------------------------------|

D|---------------------------------------------------------------------------|
A|-13-12-10---------10-------------------------------------------------------|
F|----------12--x8-----12--------x4------------------------------------------|
C|------------------------10-12------5---------------------------------------|
G|-----------------------------------5---------------------------------------|
C|-----------------------------------5---------------------------------------|

            
            
Suggest correction
Creating personal tab
Creating personal tab
You can edit any tab online and save it as your Personal.

You can edit, replace or remove any tab part or add personal notes – all changes will be seen only by you.

Personal tabs can be accessed anytime from any device, even offline.
Learn more »
Give kudos to tab author, rate the tab!
1 2 3 4 5
comments
print report bad tab
guest
You may want to rate the tab now too:
select rating
Wanna post a correction for this tab? Suggest correction