Oops, an error
Loading. Please wait.

To Be Free bass

235 views 1 this week
1 commentread comment
1 2 3 4 5
x 4
add to favorites
×
Save as Personal and add changes to this tab that will be seen only by you. Learn more ›
×
You can save this tab as Personal to edit and correct it or add notes. All changes will be seen only by you. Learn more »
launch autoscroll
font size
0
reset
guitar tuner
edit
Autoscroll
slow
fast
+/-
esc
set tempo
stop
Author
Difficulty
[Intro] - 00.18 - 00.37

G|---------------------------------------------------------------------------|
D|---------------------------------------------------------------------------|
A|-7-7-7-7-7-7-7-7-7-7-7-7-7-7-7-7-5-5-5-5-5-5-5-5-0-0-0-0-0-0-0-0-----------|
E|---------------------------------------------------------------------------| x2

[Verse] - 00.37 - 01.01

G|---------------------------------------------------------------------------|
D|-2~------------------------------0~----------------------------------------|
A|-------------------------------------------------0~------------------------|
E|---------------------------------------------------------------------------| x2

G|----------------------------------------|
D|-2~------------------------------0~-----|
A|----------------------------------------|
E|----------------------------------------|

[Chorus] - 01.01 - 01.19

G|---------------------------------------------------------------------------|
D|---------------------------------------------------------------------------|
A|-7-7-7-7-7-7-7-7-7-7-7-7-7-7-7-7-5-5-5-5-5-5-5-5-0-0-0-0-0-0-5-6-----------|
E|---------------------------------------------------------------------------| x2

[Verse] - 01.19 - 01.42

G|---------------------------------------------------------------------------|
D|---------------------------------------------------------------------------|
A|----------------------------------------5-5----5-5--5-5------------4-------|
E|-0-0-----0-0--0-0----0-0------0-0--0-0-------------------5-5---5-5---5-4---| x2

G|------------------------------------|
D|------------------------------------|
A|-7-7-7-7-7-7-7-7-5-5-5-5-5-5-5-5----|
E|------------------------------------|

[Chorus] - 01.42 - 02.10

G|---------------------------------------------------------------------------|
D|---------------------------------------------------------------------------|
A|-7-7-7-7-7-7-7-7-7-7-7-7-7-7-7-7-5-5-5-5-5-5-5-5-0-0-0-0-0-0-5-6-----------|
E|---------------------------------------------------------------------------| x2

G|---------------------------------------------------------------------------|
D|---------------------------------------------------------------------------|
A|-7-7-7-7-7-7-7-7-7-7-7-7-7-7-7-7-5-5-5-5-5-5-5-5-0-0-0-0-0-0-0-0-----------|
E|---------------------------------------------------------------------------| x2

(Rest)

[Bridge] - 02.28 - 02.57

G|---------------------------------------------------------------------------|
D|---------------------------------------------------------------------------|
A|-7-7-7-7-7-7-7-7-7-7-7-7-7-7-7-7-5-5-5-5-5-5-5-5-0-0-0-0-0-0-0-0-----------|
E|---------------------------------------------------------------------------| x3

[Chorus] - 01.42 - End. 

G|---------------------------------------------------------------------------|
D|---------------------------------------------------------------------------|
A|---------------------------------5-5-5-5-5-5-5-5-0-0-0-0-0-0-5-6-----------|
E|---------------------------------------------------------------------------| 

G|---------------------------------------------------------------------------|
D|---------------------------------------------------------------------------|
A|-7-7-7-7-7-7-7-7-7-7-7-7-7-7-7-7-5-5-5-5-5-5-5-5-0-0-0-0-0-0-5-6-----------|
E|---------------------------------------------------------------------------|

G|---------------------------------------------------------------------------|
D|---------------------------------------------------------------------------|
A|-7-7-7-7-7-7-7-7-7-7-7-7-7-7-7-7-5-5-5-5-5-5-5-5-0-0-0-0-0-0-0-0-----------|
E|---------------------------------------------------------------------------| x2

Thank you! :)

************************************

| x   Dead note
| g   Grace note
| (n) Ghost note
| h   Hammer-on
| p   Pull-off
| r   Release
| >   Accented note
| t   Tapping
| b   Bend
| br  Bend release
| pb  Pre-bend
| pbr Pre-bend release
| /   Slide up
| \   Slide down
| ~   Vibrato
| s   Slap
| P   Pop
| PM  Palm mute
| TR  Trill
| N   Tremolo

************************************
Suggest correction
Creating personal tab
Creating personal tab
You can edit any tab online and save it as your Personal.

You can edit, replace or remove any tab part or add personal notes – all changes will be seen only by you.

Personal tabs can be accessed anytime from any device, even offline.
Learn more »
comments
print report bad tab
1 comment total.
+1 reply
KittTheBrit 10 May 31, 2016 05:56 AM

Sounds to me like the whole tab is 1 fret lower than it should be but other than that the it seems correct to me

guest
You may want to rate the tab now too:
select rating
Wanna post a correction for this tab? Suggest correction