Oops, an error
Loading. Please wait.

Para Tocar El Cielo Tab

version 1
version 1

Whole song

by Tontxu
29 views 3 this week
no commentswrite comment
1 2 3 4 5
3 more votes to show rating
add to favorites
launch autoscroll
font size
0
reset
how to read this tab
guitar tuner
×
Best way to learn
"Para Tocar El Cielo"
Autoscroll
slow
fast
+/-
esc
set tempo
stop
+++++++++++++++++++++++++++++++++++++++++++++++++++++++++++++++++++++++++++++
Transcripción dedicada a Cynthia Pamela Landeros Rousse, la niña que me quita 
el sueño y me da la inspiración necesaria cada día para seguir adelante...
 

Capo en el segundo traste


-------0-----|-------0-----|-------0-----|--------0-|-------3~1-------|
-----3-----3-|-----3-----3-|-----3-----3-|-2----3---|-----3-----3---3-|
---0-----0---|---0-----0---|---0-----0---|-0--------|---2---------2---|
-------------|-------------|-------------|----------|-0---------------|
-3-----------|-2-----------|-1-----------|-0--------|-----------------|
-------------|-------------|-------------|----------|-----------------|

-------3~1-----|--0-----3-----------3--|-------1~0-------|------------|
-----1-------1-|-----------3--2--------|-----3-----3---3-|-0-----1--3-|
---1-------1---|-----0-----------0-----|---2---------2---|-0-0--------|
-0-------------|-----------------------|-0---------------|-----0------|
---------------|--3-----1-----0--------|-----------------|-2----------|
---------------|-----------------------|-----------------|------------|

-------0-----|-------0-----|--------0----|--------0-|-------3~1-------|
-----3-----3-|-----3-----3-|------3----3-|-2--2-3---|-----3-----3---3-|
---0-----0---|---0-----0---|----0--------|-0--------|---2---------2---|
-------------|-------------|-------------|----------|-0---------------|
-3-----------|-2-----------|0-1----------|-0--------|-----------------|
-------------|-------------|-------------|----------|-----------------|

--------1--|-------0----0-|---------3-|--------1~0-------|------------|
------1----|-----0----2---|-----2-----|------3-----3---3-|-0-----1--3-|
-----------|---0----------|---0---0---|----2---------2---|-0-0--------|
-0---------|--------------|-----------|--0---------------|-----0------|
-----------|-3------------|-0---------|------------------|-2----------|
-----------|--------------|-----------|------------------|------------|

-------0-----|-------0-----|-------0-----|-----------0-|----1-0-1---1-|
-----3-----3-|-----3-----3-|-----3-----3-|-2--2--2/3---|---3----------|
---0-----0---|---0-----0---|---0-----0---|-0-----------|--2-----------|
-------------|-------------|-------------|-------------|-0------------|
-3-----------|-2-----------|-1-----------|-0-----------|--------------|
-------------|-------------|-------------|-------------|--------------|

-------3~1-----|-------0----0-|--------0-|--------1~0-----------------|
-----1-----1---|-----0----2---|-2--2/3---|------3-----3--------3------|
---1---------1-|---0----------|-0--------|----2--------------0--------|
-0-------------|--------------|----------|--0--------------0----------|
---------------|-3------------|-0--------|-------------0----------0---|
---------------|--------------|----------|--------------3-----------3-|

-----------------|-------|------------------------|-------0----------0|
-------1---------|---1-1-|-------1------------1---|-----3---3~2-2-2~3-|
-----2---2-------|-1-2-0-|-----2------2-----2---1-|---0-------0---0---|
---3-------3--2--|-0-----|---3------3-----3-------|-------------------|
-------------2---|-2-0-3-|--------3---------------|-3-----------------|
-1---------------|-------|-1------------1---------|-------------------|

-------1~0------------|--------------|-------0-----|
-----3-----3--------3-|-------33---3-|-----3-----3-|
---2--------------0---|-----0--0-0---|---0-----0---|
-0--------------0-----|---0----------|-------------|
------------0---------|-3------------|-2-----------|
-------------3--------|--------------|-------------|

_|_|_|_|_|_|_|_|_|_|_|_|_|_|_|_|_|_|_|_|_|_|_|_|_|_|_|_|_|_|_|_|_|_|_|_

------------------|--------|----1~0-1--------431--|-------0--------1-|
------------------|--------|---3----------------1-|-----3---3-2-2~3--|
-------0--33~2----|------0-|--2-------------------|---0-------0------|
---2/3------------|-22~3---|-0-------2-3-3/6------|------------------|
-1----------------|--------|----------------------|-3----------------|
------------------|--------|----------------------|------------------|

---------1~0-------|-------------|
-------------3-----|-----1-3-----|
---------------2-0-|---0-----2~0-|
-2-3-3/7-----------|-0-----------|
-------------------|-------------|
-------------------|-------------|

_|_|_|_|_|_|_|_|_|_|_|_|_|_|_|_|_|_|_|_|_|_|_|_|_|_|_|_|_|_|_|_|_|_|_|_

-------0-----|-------0-----|-------0-----|-----------0-|----1-0-1---1-|
-----3-----3-|-----3-----3-|-----3-----3-|-2--2--2/3---|---3----------|
---0-----0---|---0-----0---|---0-----0---|-0-----------|--2-----------|
-------------|-------------|-------------|-------------|-0------------|
-3-----------|-2-----------|-1-----------|-0-----------|--------------|
-------------|-------------|-------------|-------------|--------------|

-------3~1-----|-------0----0-|--------0-|-------1~0------------------|
-----1-----1---|-----0----2---|-2--2/3---|-----3-----3--------1-3-----|
---1---------1-|---0----------|-0--------|---2--------------0-----2~0-|
-0-------------|--------------|----------|-0--------------0-----------|
---------------|-3------------|-0--------|------------0---------------|
---------------|--------------|----------|-------------3--------------|

-------0-----|-------0-----|-------0-----|-----------0-|----1-0-1---1-|
-----3-----3-|-----3-----3-|-----3-----3-|-2--2--2/3---|---3----------|
---0-----0---|---0-----0---|---0-----0---|-0-----------|--2-----------|
-------------|-------------|-------------|-------------|-0------------|
-3-----------|-2-----------|-1-----------|-0-----------|--------------|
-------------|-------------|-------------|-------------|--------------|

-------3~1-----|-------0----0-|--------0-|--------1~0-----------------|
-----1-----1---|-----0----2---|-2--2/3---|------3-----3--------3------|
---1---------1-|---0----------|-0--------|----2--------------0--------|
-0-------------|--------------|----------|--0--------------0----------|
---------------|-3------------|-0--------|-------------0----------0---|
---------------|--------------|----------|--------------3-----------3-|

-----------------|-------|------------------------|-------0----------0|
-------1---------|---1-1-|-------1------------1---|-----3---3~2-2-2~3-|
-----2---2-------|-1-2-0-|-----2------2-----2---1-|---0-------0---0---|
---3-------3--2--|-0-----|---3------3-----3-------|-------------------|
-------------2---|-2-0-3-|--------3---------------|-3-----------------|
-1---------------|-------|-1------------1---------|-------------------|

-------1~0------------|-------0-----0-|-------0-----0-|-------0-----0-|
-----3-----3--------3-|-----3-----3---|-----3-----3---|-----3-----3---|
---2--------------0---|---0-----0-----|---0-----0-----|---0-----0-----|
-0--------------0-----|---------------|---------------|---------------|
------------0---------|-3-------------|-2-------------|-1-------------|
-------------3--------|---------------|---------------|---------------|

-----------0-|----1-0-1---1-|-------3~1-----|-------0----0-|---------0|
-2--2--2/3---|---3----------|-----1-----1---|-----0----2---|-2-2-2/3--|
-0-----------|--2-----------|---1---------1-|---0----------|-0--------|
-------------|-0------------|-0-------------|--------------|----------|
-0-----------|--------------|---------------|-3------------|-0--------|
-------------|--------------|---------------|--------------|----------|

--------1~0-----------------|
------3-----3--------3------|
----2--------------0--------|
--0--------------0----------|
-------------0----------0---|
--------------3-----------3-|

-----------------|-------|------------------------|-------0----------0|
-------1---------|---1-1-|-------1------------1---|-----3---3~2-2-2~3-|
-----2---2-------|-1-2-0-|-----2------2-----2---1-|---0-------0---0---|
---3-------3--2--|-0-----|---3------3-----3-------|-------------------|
-------------2---|-2-0-3-|--------3---------------|-3-----------------|
-1---------------|-------|-1------------1---------|-------------------|

--------1~0-----|------0---------------|------0-|
------3-----3---|--------3-1-0---3---1-|-----1--|
----2-----------|--------------2---0---|----0---|
--0-------------|----------------------|---2----|
-------------0--|------3-2-0---0-2---0-|--3-----|
--------------3-|------------3-----3---|-0------|
Suggest correction
Give kudos to tab author, rate the tab!
1 2 3 4 5
comments
print report bad tab
guest
You may want to rate the tab now too:
select rating
Wanna post a correction for this tab? Suggest correction