Oops, an error
Loading. Please wait.

Para Tocar El Cielo Tab

version 2
version 2

Whole song

by Tontxu
37 views 1 this week
no commentswrite comment
1 2 3 4 5
3 more votes to show rating
add to favorites
launch autoscroll
font size
0
reset
how to read this tab
guitar tuner
×
Best way to learn
"Para Tocar El Cielo"
Autoscroll
slow
fast
+/-
esc
set tempo
stop
-------0-------------0-------------0----------------0---------3~1---------3~1------
-----3-----3-------3-----3-------3---3-------2---3----------1----1-1-----1---1-----
---0-----0------0-----0--------0-------0-----0------------2-------2-----1----------
---------------------------------------------2----------0-------------0------------
-3------------2-------------1----------------0-------------------------------------
-----------------------------------------------------------------------------------


-0---3--------0---------1~3~1------------------3-----------------|------------------
-1-------2--3--------3--------3--------------3-------------------|------------------
-0-------0---------2-------------2---------0---------------------|------------------
---------2------0-------------------0----------------------------|------------------
-3---1---0----------------------------------------------2--0--3--|------------------
-----------------------------------------3-----------------------|----3-2-1---------
                                                      
                                             Vuelta al principio.  Paso al estribillo

                                       ESTRIBILLO


Ahora hay que arpegiar con los acordes:

F              E (7)      
No preciso viajar lejos

        Am       C    F  
Para hallar lo que deseo...

      ------------------------------------0-------1~3~1-----------------3------------------
      -----3--------3--------3-----2---3--------3--------3------------3--------------------
      ---0---0----0---0---0----0---0----------2------------2--------0----------------------
      -----------------------------2--------0----------------0-----------------------------
      -3--------2--------1---------0-------------------------------------------------------
      ------------------------------------------------------------3------------------------ 

Si tropiezo en tu reeeeegazo         ya me basta                      para tocar el cielo...


Repitiendo esto, está toda la cancion... No he puesto la letra debajo de la tab del 
principio (en la ultima parte me ha costado lo mio hacer que coincida), porque no me 
entra y tendría que alargarla para que coincidiera justo donde es, pero si lo necesita 
alguien, no tiene mas que decirmelo.


Sugerencias, fallos y demás a : lespauhl@
Suggest correction
Give kudos to tab author, rate the tab!
1 2 3 4 5
comments
print report bad tab
guest
You may want to rate the tab now too:
select rating
Wanna post a correction for this tab? Suggest correction