Oops, an error
Loading. Please wait.

California La bass

16 views 1 this week
no commentswrite comment
1 2 3 4 5
3 more votes to show rating
add to favorites
×
Save as Personal and add changes to this tab that will be seen only by you. Learn more ›
×
You can save this tab as Personal to edit and correct it or add notes. All changes will be seen only by you. Learn more »
launch autoscroll
font size
0
reset
guitar tuner
edit
Autoscroll
slow
fast
+/-
esc
set tempo
stop
Author
Tabbed by: 6METAL6BASSIST6
E-mail: petergriffinav@gmail.com

Tuning: 1/4 step down.

0:10

G|5-----------5---------------------------------------------------|
D|----------------8-----------8---6-----------6---5-----------5---| x3
A|----------------------------------------------------------------|
E|----------------------------------------------------------------|

G|5-----------5---5-----------------------------------------------|
D|----------------------------5---6-----------6---5---------------|
A|----------------------------------------------------------------|
E|----------------------------------------------------------------|

0:25

G|5-----------5---------------------------------------------------|
D|----------------8-----------8---6-----------6---5-----------5---|
A|----------------------------------------------------------------|
E|----------------------------------------------------------------|

G|5-----------5---------------------------------------------------|
D|----------------8-----------8---6-----------6---5---------------|
A|----------------------------------------------------------------|
E|----------------------------------------------------------------|

G|5-----------5---------------------------------------------------|
D|----------------8-----------8---6-----------6---5-----------5---|
A|----------------------------------------------------------------|
E|----------------------------------------------------------------|

G|5-----------5---5-----------5-----------------------------------|
D|--------------------------------6-----------6---5---------------|
A|----------------------------------------------------------------|
E|----------------------------------------------------------------|

G|--------------------------------|
D|--------------------------------|
A|--------------------------------|
E|--------------------------------|

0:43

G|----------------------------------------------------------------|
D|----------------------------------------------------------------|
A|1-----------1---1---------------1---------------1-----1-----1---|
E|----------------------------------------------------------------|

G|----------------------------------------------------------------|
D|----------------------------5-----------------------------------|
A|3-----------3---3---------------3-----------3---3---------------|
E|----------------------------------------------------------------|

G|----------------------------------------------------------------|
D|----------------------------------------------------------------|
A|1-----------1---1---------------1-----------1---1---------------|
E|----------------------------------------------------------------|

G|----------------------------------------------------------------|
D|5-----------5---5---------------5-----------5---5---------------|
A|----------------------------5-----------------------------------|
E|----------------------------------------------------------------|

0:58

G|----------------------------------------------------------------|.
D|----------------------------------------------------------------|.
A|----------------------------------------------------------------|.
E|----------------------------------------------------------------|.
                                                                   . x2
G|5-----------5---------------------------------------------------|.
D|----------------8-----------8---6-----------6---5---------------|.
A|----------------------------------------------------------------|.
E|----------------------------------------------------------------|.

1:15

G|----------------------------------------------------------------|
D|----------------------------------------------------------------|
A|3-----------3---3-------3-------1-----------1---1-------1-------|
E|----------------------------------------------------------------|

G|----------------------------------------------------------------|
D|----------------------------------------------------------------|
A|----------------------------------------------------------------|
E|4-----------4---4-------4-------3-----------3---3-------3-------|

1:21

G|5-----------5---------------------------------------------------|
D|----------------8-----------8---6-----------6---5-------5-/-----|
A|----------------------------------------------------------------|
E|----------------------------------------------------------------|

G|----------------------------------------------------------------|
D|10----------10--8-----------8---6-----------6---5-------5-/-----| x2
A|----------------------------------------------------------------|
E|----------------------------------------------------------------|

G|----------------------------------------------------------------|
D|10----------10--8-----------8---6-----------6---5-----------5---|
A|----------------------------------------------------------------|
E|----------------------------------------------------------------|

1:37

G|5-----------5---------------------------------------------------|
D|----------------8---------------6-----------6---5-------5-------|
A|----------------------------------------------------------------|
E|----------------------------------------------------------------|

G|5-----------5---------------------------------------------------|
D|----------------8-----------8---6-----------6---5-------5-------|
A|----------------------------------------------------------------|
E|----------------------------------------------------------------|

G|5-----------5---------------------------------------------------|
D|----------------8-----------8---6-----------6---5-----------5---|
A|----------------------------------------------------------------|
E|----------------------------------------------------------------|

G|5-----------5---5-----------------------------------------------|
D|----------------------------5---6-----------6---5---------------|
A|----------------------------------------------------------------|
E|----------------------------------------------------------------|

1:52

G|----------------------------------------------------------------|.
D|----------------------------------------------------------------|.
A|----------------------------------------------------------------|.
E|----------------------------------------------------------------|.
                                                                   . x2
G|5-----------5---------------------------------------------------|.
D|----------------8-----------8---6-----------6---5---------------|.
A|----------------------------------------------------------------|.
E|----------------------------------------------------------------|.

2:08

G|----------------------------------------------------------------|
D|------------------------8-----------------------7---------------|
A|----------------------------------------------------------------|
E|----------------------------------------------------------------|

G|----------------------------------------------------------------|
D|------------6---------------------------------------------------|
A|----------------------------------------------------------------|
E|----------------------------------------------------------------|

G|----------------|
D|----------------|
A|----------------|
E|----------------|

G|5-----------------------------------------------------------3-----4-----|
D|------------------8-----------8-----6-----------6-----5-----------------|
A|----------------------------8-------------------------------------------|
0|------------------------------------------------------------------------|

G|5-----------5-----------------------------------------------8-----7-----|
D|----------5-------8-----------8-----6-----------6-----5-----------------|
A|------------------------------------------------------------------------|
0|------------------------------------------------------------------------|

G|5-----------5-----------------------------------------------3-----4-----|
D|----------5-------8-----------------6-----------6-----5-----------------|
A|------------------------------------------------------------------------|
0|------------------------------------------------------------------------|

G|5-----------5-----------------------------------------------8-----7-----|
D|----------5-------8-----------8-----6-----------6-----5-----------------|
A|----------------------------8-----------------6-------------------------|
0|------------------------------------------------------------------------|

G|5-----------5-----------------------------------------------|
D|------------------8-----------8-----6-----------6-----5-----| fades out here.
A|------------------------------------------------------------|
0|------------------------------------------------------------|

            
            
Suggest correction
Creating personal tab
Creating personal tab
You can edit any tab online and save it as your Personal.

You can edit, replace or remove any tab part or add personal notes – all changes will be seen only by you.

Personal tabs can be accessed anytime from any device, even offline.
Learn more »
Give kudos to tab author, rate the tab!
1 2 3 4 5
comments
print report bad tab
guest
You may want to rate the tab now too:
select rating
Wanna post a correction for this tab? Suggest correction