Oops, an error
Loading. Please wait.

Black Girls In Dresses Tab

31 views 1 this week
no commentswrite comment
1 2 3 4 5
3 more votes to show rating
add to favorites
launch autoscroll
font size
0
reset
how to read this tab
guitar tuner
Autoscroll
slow
fast
+/-
esc
set tempo
stop
Help us to improve Ultimate-Guitar.com Take our survey!
×
Author
Difficulty
intermediate
About this tab version
This tab shows how to play the different sections of the song, using both chord names and lyrics. Because the sections are repeated, it doesn't run from start to the end. If you know the song, you'll know what goes where. Was this info helpful? Yes No
[Verse]

  G6/D            D6         DMaj7        G6/D
e|-12-------------7----------14-----------12---------------------------------|
B|-12-------------7----------14-----------12---------------------------------|
G|-12-------------7----------14-----------12---------------------------------|
D|-0--------------0----------0------------0----------------------------------|
A|-x--------------x----------x------------x----------------------------------|
E|-x--------------x----------x------------x----------------------------------|
   Black girls in dresses  I want them to come

  G6/D           D6          DMaj7        G6/D
e|-12------------7-----------14-----------12---------------------------------|
B|-12------------7-----------14-----------12---------------------------------|
G|-12------------7-----------14-----------12---------------------------------|
D|-0-------------0-----------0------------0----------------------------------|
A|-x-------------x-----------x------------x----------------------------------|
E|-x-------------x-----------x------------x----------------------------------|
   Come see the  vision Like orange in th fall


[Bridge]
   A          G         A          G       A         G
e|-5----------3---------5----------3-------5---------3-----------------------|
B|-5----------3---------5----------3-------5---------3-----------------------|
G|-6----------4---------6----------4-------6---------4-----------------------|
D|-7----------5---------7----------5-------7---------5-----------------------|
A|-7----------5---------7----------5-------7---------5-----------------------|
E|-5----------3---------5----------3-------5---------3-----------------------|
   Oh         no        Crime gets caught  Time gets lost

   A          G
e|-5----------3--------------------------------------------------------------|
B|-5----------3--------------------------------------------------------------|
G|-6----------4--------------------------------------------------------------|
D|-7----------5--------------------------------------------------------------|
A|-7----------5--------------------------------------------------------------|
E|-5----------3--------------------------------------------------------------|
   But but it feels good

[Bridge 2}


   A          G         A            G         A         G
e|-5----------3---------5------------3---------5---------3-------------------|
B|-5----------3---------5------------3---------5---------3-------------------|
G|-6----------4---------6------------4---------6---------4-------------------|
D|-7----------5---------7------------5---------7---------5-------------------|
A|-7----------5---------7------------5---------7---------5-------------------|
E|-5----------3---------5------------3---------5---------3-------------------|
   Oh       my mom      How does she see       Veins in my feet

   A            G         DMaj7
e|-5------------3---------5--------------------------------------------------|
B|-5------------3---------7--------------------------------------------------|
G|-6------------4---------6--------------------------------------------------|
D|-7------------5---------7--------------------------------------------------|
A|-7------------5---------5--------------------------------------------------|
E|-5------------3---------x--------------------------------------------------|
   Stains in my teeth     And my knees


[M8]
   D6
e|-7-------------------------------------------------------------------------|
B|-7-------------------------------------------------------------------------|
G|-7-------------------------------------------------------------------------|
D|-7-------------------------------------------------------------------------|
A|-5-------------------------------------------------------------------------|
E|-x-------------------------------------------------------------------------|
The sound of the motor

{End of m8}
   D      DMaj7  D7
e|-2------2------2-----------------------------------------------------------|
B|-3------2------1-----------------------------------------------------------|
G|-2------2------2-----------------------------------------------------------|
D|-0------0------0-----------------------------------------------------------|
A|-x------x------x-----------------------------------------------------------|
E|-x------x------x-----------------------------------------------------------|


Black girls in dresses
I want them to come
Come see the vision
Like orange in the fall

Under the party
Bled through the store
Well I've got good credit
Built over months

Drums and a needle
Stomps on the floor
March up the middle
And out the front door

Oh no
Crime gets caught
Time gets lost
But but it feels good

Under the highway
Shoulder is close
Sold me a lemon
And I drove into a hole

Back at your driveway
Won't lose my thirst
Sold me a lemon
You’re ugly male nurse

I stand in the doorway
Arms crossed at your waist
Slowly I retrace
Goes for short term

But oh no
Crime gets caught
Time gets lost
But but it feels good

Oh my mom
How does she see
Veins in my feet
Stains in my teeth
And my knees
Marks on my knees
Marks on my knees
Marks on my knees

The sound of the motor
Bounds of the color

Oh make me
Wait for me now
Make my muscle bleed out

Oh make me
Oh wait for me now
Make my muscle bleed

Oh make me
Oh wait for me now
Make my muscle bleed out

Under the party
Bled through the store
Well I've got good credit
Built over months

Drums and a needle
Stomps on the floor
March up the middle
And right out the front door

You stand in the doorway
Arms crossed at your waist
Can I please hit play
Once more then stop
Once more then stop

************************************

| x  Dead note

************************************
Suggest correction
Give kudos to tab author, rate the tab!
1 2 3 4 5
comments
print report bad tab
guest
You may want to rate the tab now too:
select rating
Wanna post a correction for this tab? Suggest correction