Oops, an error
Loading. Please wait.

Ako To Se Zove Ljubav Tab

1,206 views 1 this week
no commentswrite comment
1 2 3 4 5
please rate
add to favorites
launch autoscroll
font size
0
reset
how to read this tab
guitar tuner
Autoscroll
slow
fast
+/-
esc
set tempo
stop
Help us to improve Ultimate-Guitar.com Take our survey!
×
Contributor
Difficulty
Flationis 275
intermediate
-------------------------------------------------------------------------------
     Ako to se zove ljubav - Intro/Solo
-------------------------------------------------------------------------------
Tabbed by: Hrvoje Cule
Email: hrvoje.cule@gmail.com

Tuning: Standard

e|---------------------------------------------------------------------------|
B|---------------------------------------------------------------------------|
G|-----------------10b12-10----8-10b12-10p8h10---------------12b13-12--12-10-|
D|-------10-12-13-----------------------------------10-12-13-----------------|
A|--8/10---------------------------------------9/11--------------------------|
E|---------------------------------------------------------------------------|

e|---------------------------------------------------------------------------|
B|---------------------------------------------------------------------------|
G|-12b13br--10-8-------------------10b12-10--8--10-8h10p8-7--7-7b8-7-5----5--|
D|-----------------------10-12-13--------------------------------------8-----|
A|------------------8/10-----------------------------------------------------|
E|---------------------------------------------------------------------------|

e|---------------------------------------------------------------------------|
B|---------------------------------------------------------------------------|
G|---------------------------------------------------------------------------|
D|-------8-------------------------------------------------------------------|
A|---7/9----8~--6------------------------------------------------------------|
E|----------------8~--6--8~\-------------------------------------------------|

Solo 1

e|---------------------------------------------------------------------------|
B|------------------18b20-18--16-18b20br-16-18------------------20b22-20-----|
G|--------17-19-20-------------------------------------17-19-20--------------|
D|--15/17----------------------------------------16/18-----------------------|
A|---------------------------------------------------------------------------|
E|---------------------------------------------------------------------------|

e|---------------------------------------------------------------------------|
B|-20-18-20b22br-18-16-18b20br-16--------------------pb18-18-16-18b20br-16-15|
G|-----------------------------------------17-19-20--------------------------|
D|-----------------------------------15/17-----------------------------------|
A|---------------------------------------------------------------------------|
E|---------------------------------------------------------------------------|

e|---------------------------------------------------------------------------|
B|--15-15b16-15--13----13~---------------------------------------------------|
G|------------------15----------------8-10br12p8--8-10br12p8-----------------|
D|-------------------------------8/10-----------10-----------10~-------------|
A|---------------------------------------------------------------------------|
E|---------------------------------------------------------------------------|
                                | ovaj dio brzo / fast this part |    

************************************

| /   slide up
| \   slide down
| h   hammer-on
| p   pull-off
| ~   vibrato
| +   harmonic
| x   Mute note
| b   Bend
| pb  Pre-bend
| br  Bend release
| pbr Pre-bend release
| brb Bend release bend

************************************
comments
We did not receive enough feedback on this tab! Please rate:
print report bad tab
1 2 3 4 5
I want to post or [tab]
guest
You may want to rate the tab now too:
select rating
Please do not post tabs as comments. Select "correction" instead!