Oops, an error
Loading. Please wait.

It Doesnt Matter solo tab

64 views 3 this week
no commentswrite comment
1 2 3 4 5
3 more votes to show rating
add to favorites
×
Save as Personal and add changes to this tab that will be seen only by you. Learn more ›
×
You can save this tab as Personal to edit and correct it or add notes. All changes will be seen only by you. Learn more »
launch autoscroll
font size
0
reset
how to read this tab
guitar tuner
edit
Autoscroll
slow
fast
+/-
esc
set tempo
stop
Author
Difficulty
About this tab version
Theme of Sonic from Sonic Adventure 2. Was this info helpful? Yes No
-----------------------------------------------------------------
It Doesn't Matter - Tony Harnell
-----------------------------------------------------------------
Tabbed by: Slorgs
Email: idontknowagoodnametouse@gmail.com

Tuning: Standard

e|-------------------------------------------------------------------|
B|-17fb19br----17fb19-19br17-15-14--14h15h16h17----------------------|
G|----------------------------------------------14~------------------|
D|--------------------------------------------------11h12h13h14------|
A|--------------------------------------------------------------12~\-|
E|-------------------------------------------------------------------|

e|----------------10--10fb12br10--9-10-11-12br~~~~\---|
B|----------------------------------------------------|
G|-------7---/11--------------------------------------|
D|-/9-------------------------------------------------|
A|----------------------------------------------------|
E|----------------------------------------------------|

e|---------------------------------------10---9h10h11h12-10--8h9-----|
B|------------------------------10h11h12-------------------------10~-|
G|-------*7h9p7*---------7h9/11--------------------------------------|
D|-*7h9*--------*9p7*------------------------------------------------|   *=pinch harmonics
A|--------------------9----------------------------------------------|
E|-------------------------------------------------------------------|

e|---------/10-9------------------------------------9-11---15-13-12-13~|
B|------7----------9---------------9-11-----9-11-13--------------------|
G|-/7------------------9---8-10-12------12-----------------------------|
D|---------------------------------------------------------------------|
A|---------------------------------------------------------------------|
E|---------------------------------------------------------------------|

Last riff notes are played separately, not hammered on.


fb=full bend
br=bend release
h=hammer on
p=pull off
~=vibrato
/=slide up
\=slide down

            
            
Suggest correction
Creating personal tab
Creating personal tab
You can edit any tab online and save it as your Personal.

You can edit, replace or remove any tab part or add personal notes – all changes will be seen only by you.

Personal tabs can be accessed anytime from any device, even offline.
Learn more »
Give kudos to tab author, rate the tab!
1 2 3 4 5
comments
print report bad tab
guest
You may want to rate the tab now too:
select rating
Wanna post a correction for this tab? Suggest correction