Oops, an error
Loading. Please wait.

Steamy Windows tab

version 1
version 1

Whole song

Interactive

5,023 views 36 this week
no commentswrite comment
1 2 3 4 5
2 more votes to show rating
add to favorites
×
Save as Personal and add changes to this tab that will be seen only by you. Learn more ›
×
You can save this tab as Personal to edit and correct it or add notes. All changes will be seen only by you. Learn more »
launch autoscroll
font size
0
reset
how to read this tab
guitar tuner
edit
Autoscroll
slow
fast
+/-
esc
set tempo
stop
Author
Difficulty
STEAMY WINDOWS
As recorded by Tony Joe White
(From the 1991 Album CLOSER TO THE TRUTH)

Words and Music by Tony Joe White

Transcribed by Slowhand

Gtr I (E A D G B E) - 'Guitar 1'
Gtr II (E A D G B E) - 'Guitar 2'

 Intro
  Q=138
  N.C.
 4/4
  Gtr I
  E E q  E E E E   +Q       E E E E E E
|----------------|----------------------|
|----------------|----------------------|
|----------------|----------------------|
|-----2--0-2---5-|-(5)b5.5--2---------2-|
|----------------|------------2-5-5-----|
|-0--------------|----------------------|
|
| Gtr II
| E E q  E E E E   +Q       E E E e E E
|----------------|----------------------|
|----------------|----------------------|
|--------------0-|-(0)------0-----------|
|-----2--2-2---2-|-(2)------2---2-2---2-|
|----------------|----------------------|
|-0--------------|----------------------|


  +Q   E E E E E E      +Q      E E E S    +S  +E. +S
|---------------------|-------------------------------------|
|---------------------|-------------------------------------|
|---------------------|-------------------------------------|
|-(2)------5-2---2----|-(2)---------------------------------|
|------5-2------------|---------5-2-5-----------------------|
|---------------------|---------------3b5==(3)r(3)-(3)b3.5--|
|
| +Q   E E E E E E      +H.                     Q
|---------------------|-------------------------------------|
|---------------------|-------------------------------------|
|---------------------|-------------------------------------|
|-(2)--2---2-2---0tr2-|-(0tr2)------------------------------|
|---------------------|-------------------------------------|
|---------------------|-------------------------------------|


  W               Q   E E E E E E   +Q   Q  e Q  E   +Q   Q  E E  E E
|--------------|------------------|----------------|-------------------||
|--------------|------------------|---------3-3--3-|-(3)-----0---------||
|--------------|------0-2-0-------|---------4-4--4-|-(4)-----0h1-------||
|--------------|------------2-0-2-|-(2)------------|--------------2-0--||
|--------------|------------------|----------------|-------------------||
|-0------------|------------------|----------------|-------------------||
|
| Q  q  e Q  E   +Q   q   e Q   E   +Q   q  e Q  E   +Q   q  e Q.
|--------------|------------------|----------------|-------------------||
|--------------|------------------|----------------|-------------------||
|--------------|------------------|----------------|-------------------||
|----2--2-2----|------2---2-2-----|------2--2-2----|------2--2-2-------||
|--------------|------------------|----------------|-------------------||
|-0----------0-|-(0)------------0-|-(0)----------0-|-(0)---------------||


 1st Verse
  E                                G    A
                               PM
  Q  Q  E E  E E   H     E Q   E   H    H
|----------------|---------------|-3----5----|
|------------3---|---------3-----|-3----5----|
|-------0h1------|---------4-----|-4----6----|
|-2--------------|-2-------------|-5----7----|
|----------------|---------------|-5----7----|
|----------------|-------------0-|-3----5----|
|
| Q  q  e Q.       Q  q  e Q.      H    H
|----------------|---------------|-----------|
|----------------|---------------|-----------|
|----------------|---------------|-0----2----|
|----2--2-2------|----2--2-2-----|-0----2----|
|----------------|---------------|------0----|
|-0--------------|-0-------------|-3---------|


  E
  Q  a H.           E E a E E +Q.     E
|-----------------|---------------------|
|------0----------|-0-2---0-------------|
|----0h1----------|-1-2-0h1-------------|
|-----------------|---------2-(2)-----2-|
|-----------------|---------------------|
|-----------------|---------------------|
|
| Q    q   e Q.     Q     q    e  Q.
|-----------------|---------------------|
|-----------------|---------------------|
|-----------------|---------------------|
|------2---2-2----|-------2----2--2-----|
|-----------------|---------------------|
|-0---------------|-0-------------------|


  +Q   H.           E E E E +Q.     E
|-----------------|-------0-(0)-------|
|-----------------|-3-3-3-0-(0)-------|
|------1----------|-1-1-1-1-(1)-------|
|-(2)--2----------|-2-2-2-2-(2)-------|
|-----------------|-------------------|
|-----------------|-------------------|
|
|  Q   q   e Q.     Q   q    e  Q.
|-----------------|-------------------|
|-----------------|-------------------|
|-----------------|-------------------|
|------2---2-2----|-----2----2--2-----|
|-----------------|-------------------|
|--0--------------|-0-----------------|


  G    A      E
  H    H      Q  H.           E E a E E +H
|-3----5----|---------------|---------------------|
|-3----5----|----0----------|-3-2---0-------------|
|-4----6----|----1----------|-4-2-0h1-------------|
|-5----7----|---------------|---------2-(2)-------|
|-5----7----|---------------|---------------------|
|-3----5----|---------------|---------------------|
|
| H    H      Q  q   e Q.     Q     q    e  Q.
|-----------|---------------|---------------------|
|-----------|---------------|---------------------|
|-0----2----|---------------|---------------------|
|-0----2----|----2---2-2----|-------2----2--2-----|
|------0----|---------------|---------------------|
|-3---------|-0-------------|-0-------------------|


                                    G    A
  Q  H.           +H      E Q   E   H    H
|---------------|-----------------|-3----5----|
|----0----------|-(0)-----3-3-----|-3----5----|
|----1----------|-(1)-----1-1-----|-4----6----|
|----2----------|-(2)-----2-2-----|-5----7----|
|---------------|-----------------|-5----7----|
|---------------|-----------------|-3----5----|
|
| Q  q   e Q.      Q   q  e Q.      H    H
|---------------|-----------------|-----------|
|---------------|-----------------|-----------|
|---------------|-----------------|-0----2----|
|----2---2-2----|------2--2-2-----|-0----2----|
|---------------|-----------------|------0----|
|-0-------------|--0--------------|-3---------|


  Q   S  E.  +H          Q.    E E E  a E E
|----10-12--(12)------|-12-------------------|
|---------------------|----------3-2----0----|
|---------------------|----------4-2--0h1----|
|---------------------|-------------------2--|
|---------------------|----------------------|
|---------------------|----------------------|
|
| Q   q       e  Q.      Q   q   e Q.
|---------------------|----------------------|
|---------------------|----------------------|
|---------------------|----------------------|
|-----2-------2--2----|------2---2-2---------|
|---------------------|----------------------|
|-0-------------------|--0-------------------|


  +Q   H.           +H      E Q   E   H    Q.   E
|-----------------|-----------0-----|-3----5------|
|------0----------|-(0)-----3-0-----|-3----5------|
|------1----------|-(1)-----1-1-----|-4----6------|
|-(2)-------------|-----------------|-5----7----0-|
|-----------------|-----------------|-5----7------|
|-----------------|-----------------|-3----5------|
|
|  Q   q   e Q.      Q   q  e Q.      H    H
|-----------------|-----------------|-------------|
|-----------------|-----------------|-------------|
|-----------------|-----------------|-0----2------|
|------2---2-2----|------2--2-2-----|-0----2------|
|-----------------|-----------------|------0------|
|--0--------------|--0--------------|-3-----------|


                PM--------|
  H..           E   E E E E H
|-----------------|-----------------||
|-----------------|-----------------||
|-----------------|-----------------||
|-2-------------2-|-2-2-2-2-2-------||
|-----------------|-----------------||
|-----------------|-----------------||
|
| Q    q  e Q.      Q   q   e Q.
|-----------------|-----------------||
|-----------------|-----------------||
|-----------------|-----------------||
|------2--2-2-----|-----2---2-2-----||
|-----------------|-----------------||
|-0---------------|-0---------------||


 Chorus
  Em7                               D    A      E
  Q  H.           +H      E E  Q    H    H      Q   E  E     +E  E  Q
|----0----------|-(0)-----0-0-----|-2----0----|----10-------------------|
|----3----------|-(3)-----3-3-----|-3----2----|-------10b12r(10)-8------|
|----0----------|-(0)-----0-0-----|-2----2----|---------------------9---|
|----2----------|-(2)-----2-2-----|-0----2----|-------------------------|
|----2----------|-(2)-----2-2-----|------0----|-------------------------|
|----0----------|-(0)-----0-0-----|-----------|-------------------------|
|
| Q  q   e Q.      Q   q  e Q.      H    H      Q   q         e  Q.
|---------------|-----------------|-----------|-------------------------|
|---------------|-----------------|-3---------|-------------------------|
|---------------|-----------------|-2----2----|-------------------------|
|----2---2-2----|------2--2-2-----|-0----2----|-----2---------2--2------|
|---------------|-----------------|------0----|-------------------------|
|-0-------------|--0--------------|-----------|-0-----------------------|


  Em7                               D    A
  Q  H.           +H      E E  Q    H    H
|----0----------|-(0)-----0-0-----|-2----0----||
|----3----------|-(3)-----3-3-----|-3----2----||
|----0----------|-(0)-----0-0-----|-2----2----||
|----2----------|-(2)-----2-2-----|-0----2----||
|----2----------|-(2)-----2-2-----|------0----||
|----0----------|-(0)-----0-0-----|-----------||
|
| Q  q   e Q.      Q   q  e Q.      H    H
|---------------|-----------------|-----------||
|---------------|-----------------|-3---------||
|---------------|-----------------|-2----2----||
|----2---2-2----|------2--2-2-----|-0----2----||
|---------------|-----------------|------0----||
|-0-------------|--0--------------|-----------||


 Interlude
  E
  Q.   E E Q  E   +Q       e E e Q  E
|---------------|-----------------------|
|---------------|-----------------------|
|---------------|-----------------------|
|-------------5-|-(5)b5.5---------------|
|--------5-7----|----------7---5-5--7---|
|-0----0--------|------------0----------|
|
| W                W
|---------------|-----------------------|
|---------------|-----------------------|
|---------------|-----------------------|
|---------------|-----------------------|
|---------------|-----------------------|
|---------------|-----------------------|


  +Q   e E E S    +S  +E. +S        W
|---------------------------------|--------------|
|---------------------------------|--------------|
|---------------------------------|--------------|
|---------------------------------|--------------|
|-(7)--5---5----------------------|--------------|
|--------0---3b5==(3)r(3)-(3)b3.5-|-0------------|
|
|  W                                Q  q  e Q  E
|---------------------------------|--------------|
|---------------------------------|--------------|
|---------------------------------|--------------|
|---------------------------------|----2--2-2----|
|---------------------------------|--------------|
|---------------------------------|-0----------0-|


   E   S  S  S  E.  Q.     E    H      E Q  E   +W
|-----------15h17--15--------|--------------0-|-(0)------------||
|-----15h17---------------17-|---------0-3--0-|-(0)------------||
|----------------------------|---------0-1--1-|-(1)------------||
|----------------------------|---------2-2--2-|-(2)------------||
|----------------------------|----------------|----------------||
|----------------------------|----------------|----------------||
|
| +Q         q      e  Q   E   +Q   q  e Q  E   +Q   q  e Q.
|----------------------------|----------------|----------------||
|----------------------------|----------------|----------------||
|----------------------------|----------------|----------------||
|------------2------2--2-----|------2--2-2----|------2--2-2----||
|----------------------------|----------------|----------------||
|-(0)----------------------0-|-(0)----------0-|-(0)------------||


 2nd Verse
  E                                 G    A
  W              +H..           E   H    H
|--------------|------------------|-3----5----|
|-0------------|-(0)--------------|-3----5----|
|-1------------|-(1)--------------|-4----6----|
|-2------------|-(2)--------------|-5----7----|
|--------------|------------------|-5----7----|
|--------------|------------------|-3----5----|
|
| Q  q  e Q.      Q    q  e Q.      H    H
|--------------|------------------|-----------|
|--------------|------------------|-----------|
|--------------|------------------|-0----2----|
|----2--2-2----|-------2--2-2-----|-0----2----|
|--------------|------------------|------0----|
|-0------------|--0---------------|-3---------|


  E
  Q  S E. +H         E E e e e Q   E
|------------------|-------------------|
|----3h5--(5)------|-3-----------------|
|------------------|---4-2-2-0---------|
|------------------|-----------2-------|
|------------------|-------------------|
|------------------|-------------------|
|
| Q  q     e  Q.     Q   q   e Q.
|------------------|-------------------|
|------------------|-------------------|
|------------------|-------------------|
|----2-----2--2----|-----2---2-2-------|
|------------------|-------------------|
|-0----------------|-0-----------------|


                                      G    A
  H..           E   Q.    E e Q   E   H    H
|-0---------------|-----------------|-3----5----|
|-0---------------|-3-------3-3-----|-3----5----|
|-1---------------|-4-------4-4-----|-4----6----|
|-2---------------|-----------------|-5----7----|
|-----------------|-----------------|-5----7----|
|-----------------|-----------------|-3----5----|
|
| Q    q  e Q.      Q   q   e Q.      H    H
|-----------------|-----------------|-----------|
|-----------------|-----------------|-----------|
|-----------------|-----------------|-0----2----|
|------2--2-2-----|-----2---2-2-----|-0----2----|
|-----------------|-----------------|------0----|
|-0---------------|-0---------------|-3---------|


  E
  H     +Q.     S S   +H      E Q.
|---------------3h5-|-(5)-----3-------||
|-------------------|-----------5-----||
|-------------------|-----------------||
|-------------------|-----------------||
|-------------------|-----------------||
|-0-----(0)---------|-----------------||
|
| Q  q   e  Q.         Q   q  e Q.
|-------------------|-----------------||
|-------------------|-----------------||
|-------------------|-----------------||
|----2---2--2-------|------2--2-2-----||
|-------------------|-----------------||
|-0-----------------|--0--------------||


 Chorus
  Em7                               D    A      E
  Q  H.           +H      E E  Q    H    H      Q  S   +S  a    +E  +E  E  Q
|----0----------|-(0)-----0-0-----|-2----0----|----5b6-(5)-5pb6r(5)-(5)-3------|
|----3----------|-(3)-----3-3-----|-3----2----|----------------------------5---|
|----0----------|-(0)-----0-0-----|-2----2----|--------------------------------|
|----2----------|-(2)-----2-2-----|-0----2----|--------------------------------|
|----2----------|-(2)-----2-2-----|------0----|--------------------------------|
|----0----------|-(0)-----0-0-----|-----------|--------------------------------|
|
| Q  q   e Q.      Q   q  e Q.      H    H      Q  q                 e  Q.
|---------------|-----------------|-----------|--------------------------------|
|---------------|-----------------|-3---------|--------------------------------|
|---------------|-----------------|-2----2----|--------------------------------|
|----2---2-2----|------2--2-2-----|-0----2----|----2-----------------2--2------|
|---------------|-----------------|------0----|--------------------------------|
|-0-------------|--0--------------|-----------|-0------------------------------|


  Em7                               D    A
  Q  H.           +H      E E  Q    H    H      Q   S  E.  +H
|----0----------|-(0)-----0-0-----|-2----0----|----10h12--(12)-------|
|----3----------|-(3)-----3-3-----|-3----2----|----------------------|
|----0----------|-(0)-----0-0-----|-2----2----|----------------------|
|----2----------|-(2)-----2-2-----|-0----2----|----------------------|
|----2----------|-(2)-----2-2-----|------0----|----------------------|
|----0----------|-(0)-----0-0-----|-----------|----------------------|
|
| Q  q   e Q.      Q   q  e Q.      H    H      Q   q       e  Q.
|---------------|-----------------|-----------|----------------------|
|---------------|-----------------|-3---------|----------------------|
|---------------|-----------------|-2----2----|----------------------|
|----2---2-2----|------2--2-2-----|-0----2----|-----2-------2--2-----|
|---------------|-----------------|------0----|----------------------|
|-0-------------|--0--------------|-----------|-0--------------------|


  Em7                                                      E
  Q  H.            E  E     E E  E    E  E E   H    H      Q  Q  E E  a Q
|----7----------|-10-------------------------|-2----0----|----0------------|
|----8----------|----10b12-10-8-10b12-8------|-3----2----|----0--0-2----0--|
|----7----------|------------------------9---|-2----2----|----1--0-2--0h1--|
|----9----------|----------------------------|-0----2----|----2------------|
|----7----------|----------------------------|------0----|-----------------|
|----0----------|----------------------------|-----------|-0---------------|
|
| Q  q   e Q.      Q        q    e    Q.       H    H      Q  q  e Q.
|---------------|----------------------------|-----------|-----------------|
|---------------|----------------------------|-3---------|-----------------|
|---------------|----------------------------|-2----2----|-----------------|
|----2---2-2----|-----------2----2----2------|-0----2----|----2--2-2-------|
|---------------|----------------------------|------0----|-----------------|
|-0-------------|--0-------------------------|-----------|-0---------------|


                                                  Interlude
                                      D    A       E
  Q   Q  E Q.     E E E E +Q.     E   H    H       Q  S E. +H
|---------------|-3-----------------|-2----0----||-------------------|
|----/3--3-5----|---5-3-5-(5)-------|-3----2----||-------------------|
|----/4---------|-------------------|-2----2----||----7h9--(9)-------|
|---------------|-------------------|-0----2----||-------------------|
|---------------|-------------------|------0----||-------------------|
|-0-------------|-------------------|-----------||-0-----------------|
|
| Q   q  e Q.     Q   q    e  Q.      H    H       Q  q     e  Q  E
|---------------|-------------------|-----------||-------------------|
|---------------|-------------------|-3---------||-------------------|
|---------------|-------------------|-2----2----||-------------------|
|-----2--2-2----|-----2----2--2-----|-0----2----||----2-----2--2-----|
|---------------|-------------------|------0----||-------------------|
|-0-------------|-0-----------------|-----------||-0--------------0--|


                                                |-----3-----|
  +Q   E E E E E E   +E   E Q  H         H      E  E     Q  Q
|--------------7---|------------------|-----------------10-10-||
|--------------8---|------------------|---------9s12-------12-||
|-(9)--7---7-9---9-|-(9)\-------------|-----------------------||
|--------9---------|------------------|-----------------------||
|------------------|------------------|-----------------------||
|------------------|------------------|-----------------------||
|
| +Q   q   e Q   E   +Q     q  e Q  E   +Q   q  e    Q.
|------------------|------------------|-----------------------||
|------------------|------------------|-----------------------||
|------------------|------------------|-----------------------||
|------2---2-2-----|--------2--2-2----|------2--2----2--------||
|------------------|------------------|-----------------------||
|-(0)------------0-|-(0)------------0-|-(0)-------------------||


 Guitar Solo
   |---3---|
   Q  Q    Q  H         +E  E E  E  S      +S   +E  E E
|-10-10---10-10------|-(10)-----------------------------|
|-12-12---12-12------|-(12)---8-10-10b11==(10)r(10)-8---|
|--------------------|--------------------------------9-|
|--------------------|----------------------------------|
|--------------------|----------------------------------|
|--------------------|----------------------------------|
|
|  Q    q     e Q  E    +Q    q     e            Q    E
|--------------------|----------------------------------|
|--------------------|----------------------------------|
|--------------------|----------------------------------|
|-------2-----2-2----|--------2-----2------------2------|
|--------------------|----------------------------------|
|--0---------------0-|--(0)---------------------------0-|


  +H.         E E   +E   E Q  E  E   E  E
|-----------------|-----------------------|
|---------------8-|-(8)\--------12--15s17-|
|-(9)-----------9-|-(9)\------------------|
|-----------------|-----------------------|
|-----------------|-----------------------|
|-----------------|-----------------------|
|
| +Q   q  e Q   E   +Q     q  e  Q.
|-----------------|-----------------------|
|-----------------|-----------------------|
|-----------------|-----------------------|
|------2--2-2-----|--------2--2--2--------|
|-----------------|-----------------------|
|-(0)-----------0-|-(0)-------------------|


  G                   A
          |--3---|
   H     +Q   Q  Q     H     a      +S   +S   E  E  E
|------------15-17--|-17----17b18==(17)r(17)p15-------|
|-17----(17)--------|---------------------------17-17-|
|-------------------|---------------------------------|
|-------------------|---------------------------------|
|-------------------|---------------------------------|
|-------------------|---------------------------------|
|
|  W                   W
|-------------------|---------------------------------|
|-------------------|---------------------------------|
|--0----------------|--2------------------------------|
|--0----------------|--2------------------------------|
|-------------------|--0------------------------------|
|--3----------------|---------------------------------|


  E                                           G
   +H      Q    E  E       +Q   E E E  Q.      a      +E   +Q.   E E E E
|--------------10-------|-------------------|------------------------------|
|-(17)------------10b12r|=(10)--8---8h10----|-10b11==(10)r(10)---8---------|
|-----------------------|---------9---------|----------------------9-7-----|
|-----------------------|-------------------|--------------------------7---|
|-----------------------|-------------------|------------------------------|
|-----------------------|-------------------|------------------------------|
|
|   Q   q  e Q     E       +Q   q   e  Q.              W
|-----------------------|-------------------|------------------------------|
|-----------------------|-------------------|------------------------------|
|-----------------------|-------------------|----------0-------------------|
|-------2--2-2----------|-------2---2--2----|----------0-------------------|
|-----------------------|-------------------|------------------------------|
|---0--------------0----|--(0)--------------|----------3-------------------|


                      Interlude
  A
  +Q   E E  E E E E    +E  E Q     E  E E E   +Q   Q      E E E E
|-------------------||----------------------|---------------------|
|-------------------||----------------------|---------------------|
|-------------------||----------------------|---------------------|
|-(7)--5---/9s7-5---||--------------------5-|-(5)--7b7.5--5-------|
|--------7--------7-||-(7)---------5--7-----|---------------7-5-7-|
|-------------------||----------------------|---------------------|
|
|  W                    Q    S E. +H          +W
|-------------------||----------------------|---------------------|
|-------------------||----------------------|---------------------|
|--2----------------||----------------------|---------------------|
|--2----------------||-------0h2--(2)-------|-(2)-----------------|
|--0----------------||----------------------|---------------------|
|-------------------||----------------------|---------------------|


  +Q   E E E E E E   +Q   E E E E +Q
|------------------|-------------------------||
|------------------|-------------------------||
|------------------|-------------------------||
|----------5-------|-------------------------||
|-(7)--5-----7-5-7-|-(7)--5---5--------------||
|--------7---------|--------7---3-(3)b3.5----||
|
| +W                 +W
|------------------|-------------------------||
|------------------|-------------------------||
|------------------|-------------------------||
|-(2)--------------|-(2)---------------------||
|------------------|-------------------------||
|------------------|-------------------------||


 3rd Verse
  E                                G    A      E
  H     H        +H      e Q   E   H    H      Q  H           E E
|--------------|-----------------|-3----5----|---------------------|
|-------3------|-(3)-----3-3-----|-3----5----|----0tr3----------3--|
|-------4------|-(4)-----4-4-----|-4----6----|---------------/4----|
|-------2------|-(2)-----2-2-----|-5----7----|---------------------|
|--------------|-----------------|-5----7----|---------------------|
|--------------|-----------------|-3----5----|---------------------|
|
| Q  q  e Q.      Q   q  e Q.      H    H      Q  q     e Q.
|--------------|-----------------|-----------|---------------------|
|--------------|-----------------|-----------|---------------------|
|--------------|-----------------|-0----2----|---------------------|
|----2--2-2----|------2--2-2-----|-0----2----|----2-----2-2--------|
|--------------|-----------------|------0----|---------------------|
|-0------------|--0--------------|-3---------|-0-------------------|


                                                      G    A
  +H       E E  E E   W              +W               H    H
|-------------------|--------------|----------------|-3----5----|
|-(3)---------------|--------------|----------------|-3----5----|
|---------\2-0------|--------------|----------------|-4----6----|
|---------------2-0-|--------------|----------------|-5----7----|
|-------------------|--------------|----------------|-5----7----|
|-------------------|-0------------|-(0)------------|-3----5----|
|
|  Q   q   e Q.       Q  q  e Q.      Q   q  e Q.     H    H
|-------------------|--------------|----------------|-----------|
|-------------------|--------------|----------------|-----------|
|-------------------|--------------|----------------|-0----2----|
|------2---2-2------|----2--2-2----|------2--2-2----|-0----2----|
|-------------------|--------------|----------------|------0----|
|--0----------------|-0------------|--0-------------|-3---------|


  E
  E  E     E E  E     E  E  E       E E  E     E E  E     E E
|--------------------------------|----------------------------|
|---10b12-10-8-10b12-10--8-10b12-|-10-8-10b12-10-8-10b12-10-8-|
|--------------------------------|----------------------------|
|--------------------------------|----------------------------|
|--------------------------------|----------------------------|
|--------------------------------|----------------------------|
|
| Q        q    e     Q.            Q    q       e  Q.
|--------------------------------|----------------------------|
|--------------------------------|----------------------------|
|--------------------------------|----------------------------|
|----------2----2-----2----------|-------2-------2--2---------|
|--------------------------------|----------------------------|
|-0------------------------------|--0-------------------------|


    E  E  E  E  E  E   E  E    E  E E E +E  Q.
|-/10-10-10-10-10-10--10-10-|-10\-----------------||
|-/12-12-12-12-12-12--12-12-|-12\-----------------||
|---------------------------|-------2-0-(0)-------||
|---------------------------|---------------2-----||
|---------------------------|---------------------||
|---------------------------|---------------------||
|
|   Q     q     e  Q.          Q    q    e  Q.
|---------------------------|---------------------||
|---------------------------|---------------------||
|---------------------------|---------------------||
|---------2-----2--2--------|-------2----2--2-----||
|---------------------------|---------------------||
|---0-----------------------|--0------------------||


 Chorus
  Em7                               D    A
  Q  H.           +H      E E  Q    H    H      W
|----0----------|-(0)-----0-0-----|-2----0----|---------------|
|----3----------|-(3)-----3-3-----|-3----2----|---------------|
|----0----------|-(0)-----0-0-----|-2----2----|---------------|
|----2----------|-(2)-----2-2-----|-0----2----|---------------|
|----2----------|-(2)-----2-2-----|------0----|---------------|
|----0----------|-(0)-----0-0-----|-----------|-0-------------|
|
| Q  q   e Q.      Q   q  e Q.      H    H      Q  q  e Q.
|---------------|-----------------|-----------|---------------|
|---------------|-----------------|-3---------|---------------|
|---------------|-----------------|-2----2----|---------------|
|----2---2-2----|------2--2-2-----|-0----2----|----2--2-2-----|
|---------------|-----------------|------0----|---------------|
|-0-------------|--0--------------|-----------|-0-------------|


  Em7
  Q   Q   +Q.     E    H      a      +E   E   E E
|-------------------|-17-----17pb19r(17)-15-------|
|----12--(12)-------|------------------------17---|
|----13--(13)-------|-----------------------------|
|----12--(12)-------|-----------------------------|
|----14--(14)-------|-----------------------------|
|----14--(14)-------|-----------------------------|
|
| Q   q    e  Q.       Q  q           e   Q.
|-------------------|-----------------------------|
|-------------------|-----------------------------|
|-------------------|-----------------------------|
|-----2----2--2-----|-----2-----------2---2-------|
|-------------------|-----------------------------|
|-0-----------------|--0--------------------------|


  D    A      E
  H    H      Q  S E. +Q       +E  E
|-2----0----|----3h5--(5)b7----(5)---|
|-3----2----|------------------------|
|-2----2----|------------------------|
|-0----2----|------------------------|
|------0----|------------------------|
|-----------|------------------------|
|
| H    H      Q  q     e    Q.
|-----------|------------------------|
|-3---------|------------------------|
|-2----2----|------------------------|
|-0----2----|----2-----2----2--------|
|------0----|------------------------|
|-----------|-0----------------------|


  a    +E  E E E +Q     E E   +Q.    e E E  E E
|-5pb7r(5)---3--------------|----------3--------|
|--------------5-(5)----3-5-|-(5)----3---5--5-5-|
|---------------------------|-------------------|
|---------------------------|-------------------|
|---------------------------|-------------------|
|---------------------------|-------------------|
|
|       Q    q    e  Q.        Q   q   e Q.
|---------------------------|-------------------|
|---------------------------|-------------------|
|---------------------------|-------------------|
|------------2----2--2------|------2---2-2------|
|---------------------------|-------------------|
|-------0-------------------|--0----------------|


  D       A           E
  Q  E  E  E  Q   E    +W
|---------10h12--12-|-(12)------------|
|-5----12-----------|-----------------|
|-------------------|-----------------|
|-------------------|-----------------|
|-------------------|-----------------|
|-------------------|-----------------|
|
| H        H            Q   q  e Q.
|-------------------|-----------------|
|-3-----------------|-----------------|
|-2--------2--------|-----------------|
|-0--------2--------|-------2--2-2----|
|----------0--------|-----------------|
|-------------------|---0-------------|


  W               E.  S  +E   E  E     E  E E
|--------------|-12--10-(10)------------------|
|--------------|-------------12-10b12-10--8---|
|--------------|----------------------------9-|
|--------------|------------------------------|
|--------------|------------------------------|
|--------------|------------------------------|
|
| Q  q  e Q.      Q       q      e     Q.
|--------------|------------------------------|
|--------------|------------------------------|
|--------------|------------------------------|
|----2--2-2----|----------2------2-----2------|
|--------------|------------------------------|
|-0------------|--0---------------------------|


  D         A           E
  +E  E E E  E E E E    W
|---------------------|---------------|
|---------------------|---------------|
|-(9)-7---------------|---------------|
|-------7-5-/9-7-5----|---------------|
|------------------7\-|---------------|
|---------------------|---------------|
|
|  H         H          Q  q  e Q.
|---------------------|---------------|
|--3------------------|---------------|
|--2---------2--------|---------------|
|--0---------2--------|----2--2-2-----|
|------------0--------|---------------|
|---------------------|-0-------------|


                                               D     A
                                  |---3----|
  Q   Q   +Q.      E    E  Q.     Q     Q  Q    H     E  E  E  E
|--------------------|-----------15----17-17-|-17----15----------|
|----15--(15)--------|-15-17-----------------|----------17-15-17-|
|-----------------16-|-----------------------|-------------------|
|--------------------|-----------------------|-------------------|
|--------------------|-----------------------|-------------------|
|--------------------|-----------------------|-------------------|
|
| Q   q    e  Q.        Q     q   e Q.          H     H
|--------------------|-----------------------|-------------------|
|--------------------|-----------------------|--3----------------|
|--------------------|-----------------------|--2-----2----------|
|-----2----2--2------|--------2---2-2--------|--0-----2----------|
|--------------------|-----------------------|--------0----------|
|-0------------------|--0--------------------|-------------------|


  E
   +H      H         Q    E  S      +S   +E  E E E
|-----------------|------10------------------------|
|-(17)------------|---------10b11==(10)r(10)-8-----|
|-----------------|----------------------------9-7-|
|-----------------|--------------------------------|
|-----------------|--------------------------------|
|-----------------|--------------------------------|
|
|   Q   q  e Q  E   +Q    q               e  Q   E
|-----------------|--------------------------------|
|-----------------|--------------------------------|
|-----------------|--------------------------------|
|-------2--2-2----|-------2---------------2--2-----|
|-----------------|--------------------------------|
|---0-----------0-|-(0)--------------------------0-|


   H..          E     H      E E  a E a E
|------------------|----------------------||
|---------------8\-|----------------------||
|--9------------7\-|--------------7h9-7h9-||
|------------------|-----------9----------||
|------------------|----------------------||
|------------------|----------------------||
|
| +Q    q  e Q  E    +Q   q  e Q.
|------------------|----------------------||
|------------------|----------------------||
|------------------|----------------------||
|-------2--2-2-----|------2--2-2----------||
|------------------|----------------------||
|-(0)-----------0--|-(0)------------------||


 Outro
  E
              PM--------|
  +H.         E E    E  E  E E E   E E E    E  E Q  Q   e e    H      E E E E
|-----------------|----------------------|------------------|------------------|
|-----------------|----------------------|------------------|------------------|
|-(9)---------7---|--7-------------------|------------------|---------0-2p0----|
|---------------9-|-----9----7-7b8-7-5-7-|--5---------------|---------0-2p0-2--|
|-----------------|-------10-------------|-----7-7------7-7-|------------------|
|-----------------|----------------------|--------------7-7-|------------------|
|
|  Q   q  e Q   E   +Q     q   e   Q   E   +Q    q  e Q   E   +Q   q  e Q.
|-----------------|----------------------|------------------|------------------|
|-----------------|----------------------|------------------|------------------|
|-----------------|----------------------|------------------|------------------|
|------2--2-2-----|--------2---2---2-----|-------2--2-2-----|------2--2-2------|
|-----------------|----------------------|------------------|------------------|
|--0------------0-|-(0)----------------0-|-(0)------------0-|-(0)--------------|


  +H..          E   +H.         E E
|-----------------|-----------------|
|---------------3-|-(3)-----------0-|
|---------------4-|-(4)-------------|
|-(2)-----------2-|-(2)-------------|
|-----------------|-----------------|
|-----------------|-----------------|
|
|  Q    q  e Q  E   +Q   q  e Q   E
|-----------------|-----------------|
|-----------------|-----------------|
|-----------------|-----------------|
|-------2--2-2----|------2--2-2-----|
|-----------------|-----------------|
|--0------------0-|-(0)-----------0-|


   S  E. +H.           +E  E E E E   E  E E
|--------------------|-----------------------|
|--3h=5--(5)---------|-(5)-3-----------------|
|--------------------|-------4-0-2b3-2--0----|
|--------------------|--------------------2--|
|--------------------|-----------------------|
|--------------------|-----------------------|
|
| +Q      q   e Q  E   +Q    q   e   Q.
|--------------------|-----------------------|
|--------------------|-----------------------|
|--------------------|-----------------------|
|---------2---2-2----|-------2---2---2-------|
|--------------------|-----------------------|
|-(0)--------------0-|-(0)-------------------|


  +W               +E  E E E E E E E
|----------------|-------------------|
|----------------|-------------------|
|----------------|-------0-2-2-0-----|
|-(2)------------|-(2)-2---------2-2-|
|----------------|-------------------|
|----------------|-------------------|
|
|  Q   q  e Q  E   +Q    q   e Q   E
|----------------|-------------------|
|----------------|-------------------|
|----------------|-------------------|
|------2--2-2----|-------2---2-2-----|
|----------------|-------------------|
|--0-----------0-|-(0)-------------0-|


   |-----3-----|  |------3------|
   Q  S E.   S E. S E.   S E. S E.    E  E E E H
|-----6h7----6h7--6h7----6h7--6h7--|--5---------------|
|----------------------------------|-----8-5-5--------|
|----------------------------------|------------------|
|----------------------------------|------------------|
|----------------------------------|------------------|
|----------------------------------|------------------|
|
| +Q       q      e    Q        E    +Q    q   e Q.
|----------------------------------|------------------|
|----------------------------------|------------------|
|----------------------------------|------------------|
|----------2------2----2-----------|-------2---2-2----|
|----------------------------------|------------------|
|-(0)---------------------------0--|-(0)--------------|


  W               Q    E E +Q.    S S    E  E Q  H
|--------------|------/5-3-(3)--------|-----3-----------*|
|--------------|------------------5p3-|--5--------------*|
|--------------|----------------------|-----------------*|
|--------------|----------------------|-----------------*|
|--------------|----------------------|-----------------*|
|--------------|----------------------|-----------------*|
|
| Q  q  e Q  E   +Q    q    e  Q  E     +Q    q  e Q  E
|--------------|----------------------|-----------------*|
|--------------|----------------------|-----------------*|
|--------------|----------------------|-----------------*|
|----2--2-2----|-------2----2--2------|-------2--2-2----*|
|--------------|----------------------|-----------------*|
|-0----------0-|-(0)--------------0---|-(0)-----------0-*|


Duration Legend
---------------
W - whole; H - half; Q - quarter; E - 8th; S - 16th; T - 32nd; X - 64th; a - acciaccatura
+ - note tied to previous; . - note dotted; .. - note double dotted
Uncapitalized letters represent notes that are staccato (1/2 duration)
Irregular groupings are notated above the duration line
Duration letters will always appear directly above the note/fret number it represents the
duration for.  Duration letters with no fret number below them represent rests.  Multi-
bar rests are notated in the form Wxn, where n is the number of bars to rest for.  Low
melody durations appear below the staff

Tablature Legend
----------------
 h   - hammer-on
 p   - pull-off
 b   - bend
 pb  - pre-bend
 r   - bend release (if no number after the r, then release immediately)
 /\  - slide into or out of (from/to "nowhere")
 s   - legato slide
 S   - shift slide
  - natural harmonic
[n]  - artificial harmonic
n(n) - tapped harmonic
 ~   - vibrato
 tr  - trill
 T   - tap
 TP  - trem. picking
 PM  - palm muting
\n/  - tremolo bar dip; n = amount to dip
 \n  - tremolo bar down
 n/  - tremolo bar up
/n\  - tremolo bar inverted dip
 =   - hold bend; also acts as connecting device for hammers/pulls
 <>  - volume swell (louder/softer)
 x   - on rhythm slash represents muted slash
 o   - on rhythm slash represents single note slash

Misc Legend
-----------
 |  - bar
||  - double bar
||o - repeat start
o|| - repeat end
*|  - double bar (ending)
 :  - bar (freetime)
 $  - Segno
 &  - Coda
Tempo markers -  = BPM(8/16=s8/s16), where s8 = swing 8ths, s16 = swing 16ths

Suggest correction
Creating personal tab
Creating personal tab
You can edit any tab online and save it as your Personal.

You can edit, replace or remove any tab part or add personal notes – all changes will be seen only by you.

Personal tabs can be accessed anytime from any device, even offline.
Learn more »
Give kudos to tab author, rate the tab!
1 2 3 4 5
comments
print report bad tab
guest
You may want to rate the tab now too:
select rating
Wanna post a correction for this tab? Suggest correction