Oops, an error
Loading. Please wait.

Youre Gonna Look Good In Blues intro tab

202 views 18 this week
no commentswrite comment
1 2 3 4 5
3 more votes to show rating
add to favorites
×
Save as Personal and add changes to this tab that will be seen only by you. Learn more ›
×
You can save this tab as Personal to edit and correct it or add notes. All changes will be seen only by you. Learn more »
launch autoscroll
font size
0
reset
how to read this tab
guitar tuner
edit
Autoscroll
slow
fast
+/-
esc
set tempo
stop
Author
-------------------------------------------------------------------------------
                        GOOD IN BLUES - TONY JOE WHITE
-------------------------------------------------------------------------------

Intro, first verse and first chorus only.


Tuning: E A D G B e



INTRO:
-----
    
                       Em                     CM7             Em     

e|-----0-2-3-2--------|---------------------|-0-----------------|-----------------------|
B|---0----------3-1---|------------------3--|-0-----------------|-1/3-1/3--------3\1----|
G|------------------2/|-4------------2/4----|-0---------------0-|-2/4-2/4--------4\2p0--|
D|--------------------|---------------------|-2------------0h2--|-----------------------|
A|--------------------|---------------------|-3-----------------|-----------------------|
E|--------------------|---------------------|-------------------|-----------------------|


   C                  Em                       CM7             Em
 
e|-------0-2-3-5--2---|---------------------|-(0)---------------|-----------------------|
B|-----0------------3-|------8---8--3---3---|-(0)---------------|-----------------------|
G|--------------------|-4----7h9-7--2h4-2---|-(0)-------------0-|-----------------------|
D|-2------------------|-------------------5-|-(2)---------0h2---|-0h2-0h2----0h2-0h2----|
A|--------------------|---------------------|-(3)---------------|-----------------------|
E|--------------------|---------------------|-------------------|-----------------------|



VERSE:
-----

            Em                CM7         Em

  There's a cold wind blowing downtown tonight

                Em          CM7                 Em
        
  Oh, I'm all alone walking round, I don't feel right




CHORUS:
------
 
LISTEN TO THE SONG FOR THE RHYTHMIC PATTERN:


                       I'm so    used to feeling warm                 
               
Guit 2                 Em7      D6/A            C6/G

e|--------------|------------------------------|---------------------|
B|--------------|-8----------------------------|-5-------------------|
G|--------------|-7----------------------------|-5-------------------|
D|--------------|-9----------------------------|-5-------------------|
A|--------------|------------------------------|---------------------|
E|--------------|------------------------------|---------------------|

Guit 1

e|--------------|------------------------------|---------------------|
B|--------------|------------------------------|-------------8h10----|
G|----------7-9-|-9----------------------------|---------------------|
D|------7/9-----|------------------------------|---------------------|
A|--------------|------------------------------|---------------------|
E|--------------|------------------------------|---------------------|
                      
     
     Having you hanging on my  arm

   Em7      D6/A               C6/G

e|---------------------------|------------------|
B|---------------------------|--------------7-9-|
G|---------------------------|----------7/9-----|
D|---------------------------|------------------|
A|---------------------------|------------------|
E|---------------------------|------------------|


   I can't believe you just cut me loose

   Em7       D6/A                  C6/G

e|-------------------------------|------------------|
B|-8-----------------------------|------------------|
G|---9~--------------------------|------------------|
D|-------------------------------|------------------|
A|-------------------------------|------------------|
E|-------------------------------|------------------|



You're gonna look good in blues     

       D6/A               Em

e|-----------------------|-0-------------|---------|------------------------|
B|-----7-----------------|-0-------------|---------|------------------------|
G|-----7-----------------|-0-----7h9-----|---------|-----0h2--0h2p0---------|
D|-----7-----------------|-2-------------|---------|----------------2-2-0h2-|
A|-----------------------|-2-------------|---------|------------------------|
E|-----------------------|-0-------------|---------|------------------------|





************************************

| /   slide up
| \   slide down
| h   hammer-on
| p   pull-off

************************************

            
            
Suggest correction
Creating personal tab
Creating personal tab
You can edit any tab online and save it as your Personal.

You can edit, replace or remove any tab part or add personal notes – all changes will be seen only by you.

Personal tabs can be accessed anytime from any device, even offline.
Learn more »
Give kudos to tab author, rate the tab!
1 2 3 4 5
comments
print report bad tab
guest
You may want to rate the tab now too:
select rating
Wanna post a correction for this tab? Suggest correction