Oops, an error
Loading. Please wait.

Im Good intro tab

version 1
version 1

Intro

5,248 views 1 this week
1 commentread comment
1 2 3 4 5
2 more votes to show rating
add to favorites
×
Save as Personal and add changes to this tab that will be seen only by you. Learn more ›
×
You can save this tab as Personal to edit and correct it or add notes. All changes will be seen only by you. Learn more »
launch autoscroll
font size
0
reset
how to read this tab
guitar tuner
edit
Autoscroll
slow
fast
+/-
esc
set tempo
stop
-------------------------------------------------------------------------------
			     I'm Good - Tony Laf
-------------------------------------------------------------------------------
Tabbed by: Wil Kershaw
Email: wil_foxzjjjjjjj@hotmail.co.uk

Tuning: (Low to high) E-A-D-G-B-e

Capo 1st Fret

   Am			   C		 D
e|---------0---------------------0-------------3-3---------------------------|
B|-------1---1-0h1p0------------1--1----------1----1-------------------------|
G|-----2-------------2---------0-----0-----2-2-------2-----------------------|
D|---2-----------------2-----2-------------0-----------0---------------------|
A|-0---------------------0h3-----------3/5---------------5-------------------|
E|---------------------------------------------------------------------------|
			       Rake 	     Rake

I've done the basics here. It's not perfect, but I've put in the basic chords,
so I hope this has helped a bit. My advice to get the ear tingling great sound 
that Tony does when he plays it is to just to keep improvising around the Am, 
Am, C, D, chords sequence and you will soon have it. Please, if you could let 
me know if you think you have any improvments on my tab. Cheers, Wil 

http://profile.myspace.com/index.cfm?fuseaction=user.viewprofile&friendID=201520892

            
            
Suggest correction
Creating personal tab
Creating personal tab
You can edit any tab online and save it as your Personal.

You can edit, replace or remove any tab part or add personal notes – all changes will be seen only by you.

Personal tabs can be accessed anytime from any device, even offline.
Learn more »
Give kudos to tab author, rate the tab!
1 2 3 4 5
comments
print report bad tab
1 comment total.
+1 reply
05t16 50 May 19, 2008 09:49 AM

It's good so far man! Nice job.

guest
Wanna post a correction for this tab? Suggest correction